PrimaNota.ru - самый крупный в мире бесплатный архив песенных текстов, аккордов, табулатур и нот


Eyes Of Noctum - Garden Of Temptation - таба, видео

Регистрация Запомнить меня
Войти через:  Facebook Google Twitter Vk Yandex Mail.ru

Eyes Of Noctum - Garden Of Temptation - таба, видео

Печатать
Просмотров: 90
EYES OF NOCTUM
GARDEN OF TEMPTATION
DADGBE

*=PALM MUTE

TABBED BY andherembrace

gt1
--------------------------------------------------------|
--------------------------------------------------------|
--------------------------------------------------------|
--------------------------------------------------------|
-***-***--*-***-***-***-***-***-***-*-***-***-*--*--*---|
-000-000--0-000-000-000-000-000-000-0-000-000-0--0--0---|
gt2
--------------------------------------------------------|
--------------------------------------------------------|
--------------------------------------------------------|
--------------------------------------------------------|
----------------------------------------------*--*--*---|
----------------------------------------------5--5--5---|


gt1
--------------------------------------------------------|
--------------------------------------------------------|
--------------------------------------------------------|
--------------------------------------------------------|
-***-***--*-***-***-***-***-***-***-*-***-***-*--*--*---|
-000-000--0-000-000-000-000-000-000-0-000-000-0--0--0---|
gt2
----------------------------------------------3-3-3---|
----------------------------------------------6-6-6---|
------------------------------------------------------|
------------------------------------------------------|
-***-***--*-***-***-***-***-***-***-*-***-***---------|
-333-333--3-333-333-333-333-333-333-3-333-333---------|

both
--------------------------------------------------------|
--------------------------------------------------------|
--------------------------------------------------------|
--------------------------------------------------------|
-***-***--*-***-***-***-***-***-***-*-***-***-*--*--*---|
-000-000--0-000-000-000-000-000-000-0-000-000-0--0--0---|

--------------------------------------------------------|
--------------------------------------------------------|
--------------------------------------------------------|
--------------------------------------------------------|
-***-***--*-***-***-***-***-***-***-*-***-***-*--*--*---|
-000-000--0-000-000-000-000-000-000-0-000-000-0--0--0---|
gt2
--------------------------------------------------------|
--------------------------------------------------------|
--------------------------------------------------------|
--------------------------------------------------------|
----------------------------------------------*--*--*---|
----------------------------------------------5--5--5---|

gt1
--------------------------------------------------------|
--------------------------------------------------------|
--------------------------------------------------------|
--------------------------------------------------------|
-***-***--*-***-***-***-***-***-***-*-***-***-*--*--*---|
-000-000--0-000-000-000-000-000-000-0-000-000-0--0--0---|
gt2
-------------------------------------------------------|
-------------------------------------------------------|
-------------------------------------------------------|
-------------------------------------------------------|
-***-***--*-***-***-***-***-***-***-*-***-***-*--*--*--|
-333-333--3-333-333-333-333-333-333-3-333-333-3--3--3--|

gt1
--------------------------------------------------------|
--------------------------------------------------------|
--------------------------------------------------------|
--------------------------------------------------------|
-***-***--*-***-***-***-***-***-***-*-***-***-*--*--*---|
-000-000--0-000-000-000-000-000-000-0-000-000-0--0--0---|
gt2
----------------------------------------------11-11-11-|
----------------------------------------------15-15-15-|
-------------------------------------------------------|
-------------------------------------------------------|
-***-***--*-***-***-***-***-***-***-*-***-***----------|
-333-333--3-333-333-333-333-333-333-3-333-333----------|



-------------------------------------------------------|
-------------------------------------------------------|
-------------------------------------------------------|
-------------------------------------------------------|
-*-*-*--*--*-*-*--*--*-*-*--*--*-*-*-*-*-*-*-*-*-*-*-*-|
-0-0-0--0--0-0-0--0--0-0-0--0--3-2-0-0-3-2-0-0-3-2-0-0-|

----------------------------------------------|
----------------------------------------------|
------------------------5---------7-----------|
----------------------3---3-----5---5---------|
-*-*-*--*--*-*-*--*-1-------1-3-------3-------|
-0-0-0--0--0-0-0--0---------------------------|

-------------------------------------------------------|
-------------------------------------------------------|
-------------------------------------------------------|
-------------------------------------------------------|
-*-*-*--*--*-*-*--*--*-*-*--*--*-*-*-*-*-*-*-*-*-*-*-*-|
-0-0-0--0--0-0-0--0--0-0-0--0--3-2-0-0-3-2-0-0-3-2-0-0-|


----------------------------------------------|
----------------------------------------------|
------------------------5---------7-----------|
----------------------3---3-----5---5---------|
-*-*-*--*--*-*-*--*-1-------1-3-------3-------|
-0-0-0--0--0-0-0--0---------------------------|



-------------------------------------------------------|
-------------------------------------------------------|
-------------------------------------------------------|
-------------------------------------------------------|
-*-*-*--*--*-*-*--*--*-*-*--*--*-*-*-*-*-*-*-*-*-*-*-*-|
-0-0-0--0--0-0-0--0--0-0-0--0--3-2-0-0-3-2-0-0-3-2-0-0-|

----------------------------------------------|
----------------------------------------------|
------------------------5---------7-----------|
----------------------3---3-----5---5---------|
-*-*-*--*--*-*-*--*-1-------1-3-------3-------|
-0-0-0--0--0-0-0--0---------------------------|

-------------------------------------------------------|
-------------------------------------------------------|
-------------------------------------------------------|
-------------------------------------------------------|
-*-*-*--*--*-*-*--*--*-*-*--*--*-*-*-*-*-*-*-*-*-*-*-*-|
-0-0-0--0--0-0-0--0--0-0-0--0--3-2-0-0-3-2-0-0-3-2-0-0-|


----------------------------------------------|
----------------------------------------------|
------------------------5---------7-----------|
----------------------3---3-----5---5---------|
-*-*-*--*--*-*-*--*-1-------1-3-------3-------|
-0-0-0--0--0-0-0--0---------------------------|


-------------------------------------------------------|
-------------------------------------------------------|
-------------------------------------------------------|
-------------------------------------------------------|
-*-*-*--*--*-*-*--*--*-*-*--*--*-*-*-*-*-*-*-*-*-*-*-*-|
-0-0-0--0--0-0-0--0--0-0-0--0--3-2-0-0-3-2-0-0-3-2-0-0-|

----------------------------------------------|
----------------------------------------------|
------------------------5---------7-----------|
----------------------3---3-----5---5---------|
-*-*-*--*--*-*-*--*-1-------1-3-------3-------|
-0-0-0--0--0-0-0--0---------------------------|



-------------------------------------------|
-------------------------------------------|
-------------------------------------------|
-------------------------------------------|
-0---7---8---10---0---7---8--3-*-*-7-7-7---|
-0---7---8---10---0---7---8--3-3-3-7-7-7---|

-------------------------------------------|
-------------------------------------------|
-------------------------------------------|
-------------------------------------------|
-0---7---8---10---0---7---8--3-*-*-7-7-7-7-|
-0---7---8---10---0---7---8--3-3-3-7-7-7-7-|


-------------------------------------------------------------------|
-------------------------------------------------------------------|
-------------------------------------------------------------------|
-------------------------------------------------------------------|
-0---8---3---10---0---8---3---10-10-10-10--10-10--10--10--10-10-10-|
-0---8---3---10---0---8---3---10-10-10-10--10-10--10--10--10-10-10-|


-------------------------------------------------------|
-------------------------------------------------------|
-------------------------------------------------------|
-------------------------------------------------------|
-*-*-*--*--*-*-*--*--*-*-*--*--*-*-*-*-*-*-*-*-*-*-*-*-|
-0-0-0--0--0-0-0--0--0-0-0--0--3-2-0-0-3-2-0-0-3-2-0-0-|

----------------------------------------------|
----------------------------------------------|
------------------------5---------7-----------|
----------------------3---3-----5---5---------|
-*-*-*--*--*-*-*--*-1-------1-3-------3-------|
-0-0-0--0--0-0-0--0---------------------------|

-------------------------------------------------------|
-------------------------------------------------------|
-------------------------------------------------------|
-------------------------------------------------------|
-*-*-*--*--*-*-*--*--*-*-*--*--*-*-*-*-*-*-*-*-*-*-*-*-|
-0-0-0--0--0-0-0--0--0-0-0--0--3-2-0-0-3-2-0-0-3-2-0-0-|


----------------------------------------------|
----------------------------------------------|
------------------------5---------7-----------|
----------------------3---3-----5---5---------|
-*-*-*--*--*-*-*--*-1-------1-3-------3-------|
-0-0-0--0--0-0-0--0---------------------------|



-------------------------------------------------------|
-------------------------------------------------------|
-------------------------------------------------------|
-------------------------------------------------------|
-*-*-*--*--*-*-*--*--*-*-*--*--*-*-*-*-*-*-*-*-*-*-*-*-|
-0-0-0--0--0-0-0--0--0-0-0--0--3-2-0-0-3-2-0-0-3-2-0-0-|

----------------------------------------------|
----------------------------------------------|
------------------------5---------7-----------|
----------------------3---3-----5---5---------|
-*-*-*--*--*-*-*--*-1-------1-3-------3-------|
-0-0-0--0--0-0-0--0---------------------------|

-------------------------------------------------------|
-------------------------------------------------------|
-------------------------------------------------------|
-------------------------------------------------------|
-*-*-*--*--*-*-*--*--*-*-*--*--*-*-*-*-*-*-*-*-*-*-*-*-|
-0-0-0--0--0-0-0--0--0-0-0--0--3-2-0-0-3-2-0-0-3-2-0-0-|


----------------------------------------------|
----------------------------------------------|
------------------------5---------7-----------|
----------------------3---3-----5---5---------|
-*-*-*--*--*-*-*--*-1-------1-3-------3-------|
-0-0-0--0--0-0-0--0---------------------------|


-------------------------------------------------------|
-------------------------------------------------------|
-------------------------------------------------------|
-------------------------------------------------------|
-*-*-*--*--*-*-*--*--*-*-*--*--*-*-*-*-*-*-*-*-*-*-*-*-|
-0-0-0--0--0-0-0--0--0-0-0--0--3-2-0-0-3-2-0-0-3-2-0-0-|

----------------------------------------------|
----------------------------------------------|
------------------------5---------7-----------|
----------------------3---3-----5---5---------|
-*-*-*--*--*-*-*--*-1-------1-3-------3-------|
-0-0-0--0--0-0-0--0---------------------------|


-------------------------------------------|
-------------------------------------------|
-------------------------------------------|
-------------------------------------------|
-0---7---8---10---0---7---8--3-*-*-7-7-7---|
-0---7---8---10---0---7---8--3-3-3-7-7-7---|

-------------------------------------------|
-------------------------------------------|
-------------------------------------------|
-----------------------------*-*-*-*-*-*---|
-0---7---8---10---0---7---8--3-3-3-7-7-7---|
-0---7---8---10---0---7---8--3-3-3-7-7-7---|

-------------------------------------------------------------------|
-------------------------------------------------------------------|
-------------------------------------------------------------------|
-------------------------------------------------------------------|
-0---8---3---10---0---8---3---10-10-10-10--10-10--10--10--10-10-10-|
-0---8---3---10---0---8---3---10-10-10-10--10-10--10--10--10-10-10-|

-------------------------------------------------------------------|
-------------------------------------------------------------------|
-------------------------------------------------------------------|
-------------------------------------------------------------------|
-0---8---3---10---0---8---3---10-10-10-10--10-10--10--10--10-10-10-|
-0---8---3---10---0---8---3---10-10-10-10--10-10--10--10--10-10-10-|
    
solo
                __            __
   ^           /  \          /  \      T ^       T^
-17-13-------13-17-13------13-17-13----18-13----17-13-----|
-------15--15--------15--15---------15-------15-------15--|
---------14------------14---------------------------------|
----------------------------------------------------------|
----------------------------------------------------------|
----------------------------------------------------------|

        __            __            __            __
       /  \          /  \          /  \          /  \
-----13-17-13------13-17-13------13-17-13------13-17-13--------13---|
---15--------15--15--------15--15--------15--15----------15--15-----|
-14------------14------------14------------14--------------14-------|
--------------------------------------------------------------------|
--------------------------------------------------------------------|
--------------------------------------------------------------------|
               __                          __
              /  \                        /  \
------------13-17-13--------------------13-17-13----------|
----------15--------15----------------15--------15--------|
--------14------------14------------14------------14------|
------15----------------15--------15----------------15----|
-13-17--------------------17-13-17--------------------17--|
----------------------------------------------------------|

   ^             ^              ^             ^
-20-17------17-20-17-------17-20-17------17-20-17------17--|
------18--18--------18--18---------18--18--------18--18----|
--------17------------17-------------17------------17------|
-----------------------------------------------------------|
-----------------------------------------------------------|
-----------------------------------------------------------|
                __            __
   ^           /  \          /  \      T ^       T^
-17-13-------13-17-13------13-17-13----18-13----17-13-----|
-------15--15--------15--15---------15-------15-------15--|
---------14------------14---------------------------------|
----------------------------------------------------------|
----------------------------------------------------------|
----------------------------------------------------------|

        __            __            __            __
       /  \          /  \          /  \          /  \
-----13-17-13------13-17-13------13-17-13------13-17-13--------13---|
---15--------15--15--------15--15--------15--15----------15--15-----|
-14------------14------------14------------14--------------14-------|
--------------------------------------------------------------------|
--------------------------------------------------------------------|
--------------------------------------------------------------------|
               __                          __
              /  \                        /  \
------------13-17-13--------------------13-17-13----------|
----------15--------15----------------15--------15--------|
--------14------------14------------14------------14------|
------15----------------15--------15----------------15----|
-13-17--------------------17-13-17--------------------17--|
----------------------------------------------------------|


                __            __
   ^           /  \          /  \      T ^       T^
-17-13-------13-17-13------13-17-13----18-13----17-13-----|
-------15--15--------15--15---------15-------15-------15--|
---------14------------14---------------------------------|
----------------------------------------------------------|
----------------------------------------------------------|
----------------------------------------------------------|

--------------------------------------------------------|
--------------------------------------------------------|
--------------------------------------------------------|
--------------------------------------------------------|
-***-***--*-***-***-***-***-***-***-*-***-***-*--*--*---|
-000-000--0-000-000-000-000-000-000-0-000-000-0--0--0---|

--------------------------------------------------------|
--------------------------------------------------------|
--------------------------------------------------------|
--------------------------------------------------------|
-***-***--*-***-***-*-*-*-***-***--*-***-***-*--*--*----|
-000-000--0-000-000-0-0-0-000-000--0-000-000-0--0--0----|

--------------------------------------------------------|
--------------------------------------------------------|
--------------------------------------------------------|
--------------------------------------------------------|
-***-***--*-***-***-*-*-*-***-***--*-***-***-*--*--*----|
-000-000--0-000-000-0-0-0-000-000--0-000-000-0--0--0----|

--------------------------------------------------------|
--------------------------------------------------------|
--------------------------------------------------------|
--------------------------------------------------------|
-***-***--*-***-***-*-*-*-***-***--*-***-***-*--*--*----|
-000-000--0-000-000-0-0-0-000-000--0-000-000-0--0--0----|

--------------------------------------------------------|
--------------------------------------------------------|
--------------------------------------------------------|
--------------------------------------------------------|
-***-***--*-***-***-*-*-*-***-***--*-***-***-*--*--*----|
-000-000--0-000-000-0-0-0-000-000--0-000-000-0--0--0----|


----------------------------------------------11-11-11--|
----------------------------------------------15-15-15--|
--------------------------------------------------------|
--------------------------------------------------------|
-***-***--*-***-***-***-***-***-***-*-***-***-----------|
-000-000--0-000-000-000-000-000-000-0-000-000-----------|


Добавлено: 10.10.2013
Другие материалы по этой песне:
  • Аккорды и текст

Страница создана 10.10.2013
http://primanota.ru/eyes-of-noctum/garden-of-temptation-chords.htm
Привет, Гость.
Предлагаем пройти революционный курс по гитаре.
Подарок от PrimaNota.Ru, забирай!