PrimaNota.ru - самый крупный в мире бесплатный архив песенных текстов, аккордов, табулатур и нот


Eyes Of Noctum - Eyes Of Noctum - таба, видео

Регистрация Запомнить меня
Войти через:  Facebook Google Twitter Vk Yandex Mail.ru

Eyes Of Noctum - Eyes Of Noctum - таба, видео

Печатать
Просмотров: 252
Уроки эстрадного вокала в Санкт-Петербурге
EYES OF NOCTUM
EYES OF NOCTUM

 DADGBE

*=PALM MUTE
///=TREMELO PICK


TABBED BY-andherembrace

-----------------------------------------------|
-----------------------------------------------|
-----------------------*-*-----------*-*-------|
-*-*-------*-*---------5-5-----------4-4-------|
-2-2-------2-2---------3-3-----------2-2-------|
-2-2-------2-2---------------------------------|


-------------------------------------------------|
-------------------------------------------------|
-------------------------------------------------|
-*-*-*-*-*-*-*-*-*-*-*-*-*-*-*-*-*-*-*-*-*-*-*-*-|
-7-7-7-7-7-7-7-7-7-7-7-7-7-7-7-7-7-7-7-7-7-7-7-7-|
-------------------------------------------------|

-------------------------------------------------|
-------------------------------------------------|
-------------------------------------------------|
-*-*-*-*-*-*-*-*-*-*-*-*-*-*-*-*-*-*-*-*-*-*-*-*-|
-3-3-3-3-3-3-3-3-3-3-3-3-3-3-3-3-3-3-3-3-3-3-3-3-|
-------------------------------------------------|

-------------------------------------------------|
-------------------------------------------------|
-------------------------------------------------|
-*-*-*-*-*-*-*-*-*-*-*-*-*-*-*-*-*-*-*-*-*-*-*-*-|
-6-6-6-6-6-6-6-6-6-6-6-6-6-6-6-6-6-6-6-6-6-6-6-6-|
-------------------------------------------------|

-------------------------------------------------|
-------------------------------------------------|
-------------------------------------------------|
-*-*-*-*-*-*-*-*-*-*-*-*-*-*-*-*-*-*-*-*-*-*-*-*-|
-2-2-2-2-2-2-2-2-2-2-2-2-3-3-3-3-3-3-2-2-2-2-2-2-|
-------------------------------------------------|


-------------------------------------------------|
-------------------------------------------------|
-------------------------------------------------|
-*-*-*-*-*-*-*-*-*-*-*-*-*-*-*-*-*-*-*-*-*-*-*-*-|
-7-7-7-7-7-7-7-7-7-7-7-7-7-7-7-7-7-7-7-7-7-7-7-7-|
-------------------------------------------------|

-------------------------------------------------|
-------------------------------------------------|
-------------------------------------------------|
-*-*-*-*-*-*-*-*-*-*-*-*-*-*-*-*-*-*-*-*-*-*-*-*-|
-3-3-3-3-3-3-3-3-3-3-3-3-3-3-3-3-3-3-3-3-3-3-3-3-|
-------------------------------------------------|

-------------------------------------------------|
-------------------------------------------------|
-------------------------------------------------|
-*-*-*-*-*-*-*-*-*-*-*-*-*-*-*-*-*-*-*-*-*-*-*-*-|
-6-6-6-6-6-6-6-6-6-6-6-6-6-6-6-6-6-6-6-6-6-6-6-6-|
-------------------------------------------------|

-------------------------------------------------|
-------------------------------------------------|
-------------------------------------------------|
-*-*-*-*-*-*-*-*-*-*-*-*-*-*-*-*-*-*-*-*-*-*-*-*-|
-2-2-2-2-2-2-2-2-2-2-2-2-3-3-3-3-3-3-2-2-2-2-2-2-|
-------------------------------------------------|


-------------------------------------------------|
-------------------------------------------------|
-------------------------------------------------|
-*-*-*-*-*-*-*-*-*-*-*-*-*-*-*-*-*-*-*-*-*-*-*-*-|
-7-7-7-7-7-7-7-7-7-7-7-7-7-7-7-7-7-7-7-7-7-7-7-7-|
-------------------------------------------------|

-------------------------------------------------|
-------------------------------------------------|
-------------------------------------------------|
-*-*-*-*-*-*-*-*-*-*-*-*-*-*-*-*-*-*-*-*-*-*-*-*-|
-3-3-3-3-3-3-3-3-3-3-3-3-3-3-3-3-3-3-3-3-3-3-3-3-|
-------------------------------------------------|

-------------------------------------------------|
-------------------------------------------------|
-------------------------------------------------|
-*-*-*-*-*-*-*-*-*-*-*-*-*-*-*-*-*-*-*-*-*-*-*-*-|
-6-6-6-6-6-6-6-6-6-6-6-6-6-6-6-6-6-6-6-6-6-6-6-6-|
-------------------------------------------------|

--------------------------|
--------------------------|
--------------------------|
-*-*-*-*-*-*-*-*-*-*-*----|
-2-2-2-2-2-2-2-2-2-2-2-ps-|
-------------------------\|


0:41
GT.1
------------------------------------------------------------------|
------------------------------------------------------------------|
------------------------------------------------------------------|
****************************************************************--|
7777777777777777777777777777777733333333333333333333333333333333--|
------------------------------------------------------------------|
GT.2
---------------------------------------------------------------|
---------------------------------------------------------------|
-///-///--///-------///--///--///---///-----///-----///--------|
--9---7----9---------7----9---10----12------10-------9---------|
---------------------------------------------------------------|
---------------------------------------------------------------|



GT.1
-----------------------------------------------------------------|
-----------------------------------------------------------------|
-----------------------------------------------------------------|
****************************************************************-|
6666666666666666666666666666666622222222222222222222222222222222-|
-----------------------------------------------------------------|
GT.2
---------------------------------------------------------------|
---------------------------------------------------------------|
-///-///--///-------///--///--///---///-----///-----///--------|
--9---7----9---------7----9---10----12------10-------9---------|
---------------------------------------------------------------|
---------------------------------------------------------------|



GT.1
------------------------------------------------------------------|
------------------------------------------------------------------|
------------------------------------------------------------------|
****************************************************************--|
7777777777777777777777777777777733333333333333333333333333333333--|
------------------------------------------------------------------|
GT.2
---------------------------------------------------------------|
---------------------------------------------------------------|
-///-///--///-------///--///--///---///-----///-----///--------|
--9---7----9---------7----9---10----12------10-------9---------|
---------------------------------------------------------------|
---------------------------------------------------------------|



GT.1
-----------------------------------------------------------------|
-----------------------------------------------------------------|
-----------------------------------------------------------------|
****************************************************************-|
6666666666666666666666666666666622222222222222222222222222222222-|
-----------------------------------------------------------------|
GT.2
---------------------------------------------------------------|
------------------------------------------///-----///-------///|
-///-///--///-------///--///--///---///----9-------11-------12-|
--9---7----9---------7----9---10----12-------------------------|
---------------------------------------------------------------|
---------------------------------------------------------------|


1:00
----------------------------------------------------------------------|
----------------------------------------------------------------------|
--------------------------------------*-*----------------*-*------2-4-|
-*-*--4--5--2--4--1--*-*--4--5--2--4--5-5--4--5--2--4--1-4-4-4--5-----|
-2-2-----------------2-2--------------3-3----------------2-2----------|
-2-2-----------------2-2----------------------------------------------|


----------------------------------------------------------------------|
----------------------------------------------------------------------|
--------------------------------------*-*----------------*-*------2-4-|
-*-*--4--5--2--4--1--*-*--4--5--2--4--5-5--4--5--2--4--1-4-4-4--5-----|
-2-2-----------------2-2--------------3-3----------------2-2----------|
-2-2-----------------2-2----------------------------------------------|


1:23
-------------------------------------------------|
-------------------------------------------------|
-------------------------------------------------|
-*-*-*-*-*-*-*-*-*-*-*-*-*-*-*-*-*-*-*-*-*-*-*-*-|
-7-7-7-7-7-7-7-7-7-7-7-7-7-7-7-7-7-7-7-7-7-7-7-7-|
-------------------------------------------------|

-------------------------------------------------|
-------------------------------------------------|
-------------------------------------------------|
-*-*-*-*-*-*-*-*-*-*-*-*-*-*-*-*-*-*-*-*-*-*-*-*-|
-3-3-3-3-3-3-3-3-3-3-3-3-3-3-3-3-3-3-3-3-3-3-3-3-|
-------------------------------------------------|

-------------------------------------------------|
-------------------------------------------------|
-------------------------------------------------|
-*-*-*-*-*-*-*-*-*-*-*-*-*-*-*-*-*-*-*-*-*-*-*-*-|
-6-6-6-6-6-6-6-6-6-6-6-6-6-6-6-6-6-6-6-6-6-6-6-6-|
-------------------------------------------------|

-------------------------------------------------|
-------------------------------------------------|
-------------------------------------------------|
-*-*-*-*-*-*-*-*-*-*-*-*-*-*-*-*-*-*-*-*-*-*-*-*-|
-2-2-2-2-2-2-2-2-2-2-2-2-2-2-2-2-2-2-2-2-2-2-2-2-|
-------------------------------------------------|


-------------------------------------------------|
-------------------------------------------------|
-------------------------------------------------|
-*-*-*-*-*-*-*-*-*-*-*-*-*-*-*-*-*-*-*-*-*-*-*-*-|
-7-7-7-7-7-7-7-7-7-7-7-7-7-7-7-7-7-7-7-7-7-7-7-7-|
-------------------------------------------------|

-------------------------------------------------|
-------------------------------------------------|
-------------------------------------------------|
-*-*-*-*-*-*-*-*-*-*-*-*-*-*-*-*-*-*-*-*-*-*-*-*-|
-3-3-3-3-3-3-3-3-3-3-3-3-3-3-3-3-3-3-3-3-3-3-3-3-|
-------------------------------------------------|

-------------------------------------------------|
-------------------------------------------------|
-------------------------------------------------|
-*-*-*-*-*-*-*-*-*-*-*-*-*-*-*-*-*-*-*-*-*-*-*-*-|
-6-6-6-6-6-6-6-6-6-6-6-6-6-6-6-6-6-6-6-6-6-6-6-6-|
-------------------------------------------------|

-------------------------------------------------|
-------------------------------------------------|
-------------------------------------------------|
-*-*-*-*-*-*-*-*-*-*-*-*-*-*-*-*-*-*-*-*-*-*-*-*-|
-2-2-2-2-2-2-2-2-2-2-2-2-2-2-2-2-2-2-2-2-2-2-2-2-|
-------------------------------------------------|


-------------------------------------------------|
-------------------------------------------------|
-------------------------------------------------|
-*-*-*-*-*-*-*-*-*-*-*-*-*-*-*-*-*-*-*-*-*-*-*-*-|
-7-7-7-7-7-7-7-7-7-7-7-7-7-7-7-7-7-7-7-7-7-7-7-7-|
-------------------------------------------------|

-------------------------------------------------|
-------------------------------------------------|
-------------------------------------------------|
-*-*-*-*-*-*-*-*-*-*-*-*-*-*-*-*-*-*-*-*-*-*-*-*-|
-3-3-3-3-3-3-3-3-3-3-3-3-3-3-3-3-3-3-3-3-3-3-3-3-|
-------------------------------------------------|

-------------------------------------------------|
-------------------------------------------------|
-------------------------------------------------|
-*-*-*-*-*-*-*-*-*-*-*-*-*-*-*-*-*-*-*-*-*-*-*-*-|
-6-6-6-6-6-6-6-6-6-6-6-6-6-6-6-6-6-6-6-6-6-6-6-6-|
-------------------------------------------------|

--------------------------|
--------------------------|
--------------------------|
-*-*-*-*-*-*-*-*-*-*-*----|
-2-2-2-2-2-2-2-2-2-2-2-ps-|
-------------------------\|


1:52
GT.1
------------------------------------------------------------------|
------------------------------------------------------------------|
------------------------------------------------------------------|
****************************************************************--|
7777777777777777777777777777777733333333333333333333333333333333--|
------------------------------------------------------------------|
GT.2
---------------------------------------------------------------|
---------------------------------------------------------------|
-///-///--///-------///--///--///---///-----///-----///--------|
--9---7----9---------7----9---10----12------10-------9---------|
---------------------------------------------------------------|
---------------------------------------------------------------|

GT.1
-----------------------------------------------------------------|
-----------------------------------------------------------------|
-----------------------------------------------------------------|
****************************************************************-|
6666666666666666666666666666666622222222222222222222222222222222-|
-----------------------------------------------------------------|
GT.2
---------------------------------------------------------------|
---------------------------------------------------------------|
-///-///--///-------///--///--///---///-----///-----///--------|
--9---7----9---------7----9---10----12------10-------9---------|
---------------------------------------------------------------|
---------------------------------------------------------------|


GT.1
------------------------------------------------------------------|
------------------------------------------------------------------|
------------------------------------------------------------------|
****************************************************************--|
7777777777777777777777777777777733333333333333333333333333333333--|
------------------------------------------------------------------|
GT.2
---------------------------------------------------------------|
---------------------------------------------------------------|
-///-///--///-------///--///--///---///-----///-----///--------|
--9---7----9---------7----9---10----12------10-------9---------|
---------------------------------------------------------------|
---------------------------------------------------------------|

GT.1
-----------------------------------------------------------------|
-----------------------------------------------------------------|
-----------------------------------------------------------------|
****************************************************************-|
6666666666666666666666666666666622222222222222222222222222222222-|
-----------------------------------------------------------------|
GT.2
---------------------------------------------------------------|
------------------------------------------///-----///-------///|
-///-///--///-------///--///--///---///----9-------11-------12-|
--9---7----9---------7----9---10----12-------------------------|
---------------------------------------------------------------|
---------------------------------------------------------------|


2:11
----------------------------------------------------------------------|
----------------------------------------------------------------------|
--------------------------------------*-*----------------*-*------2-4-|
-*-*--4--5--2--4--1--*-*--4--5--2--4--5-5--4--5--2--4--1-4-4-4--5-----|
-2-2-----------------2-2--------------3-3----------------2-2----------|
-2-2-----------------2-2----------------------------------------------|

----------------------------------------------------------------------|
----------------------------------------------------------------------|
--------------------------------------*-*----------------*-*------2-4-|
-*-*--4--5--2--4--1--*-*--4--5--2--4--5-5--4--5--2--4--1-4-4-4--5-----|
-2-2-----------------2-2--------------3-3----------------2-2----------|
-2-2-----------------2-2----------------------------------------------|


2:34
---------------------------------------------------------------|
---------------------------------------------------------------|
---------------------------------------------------------------|
------------5-4-*-*-*-4-4--2--*-*-*-2-2------------------------|
-2-*-*-*-2--3-2-2-2-2-2-2--0--0-0-0-0-0--*-*-*-5--4-4-4-4------|
-2-2-2-2-2-------------------------------5-5-5-5--4-4-4-4------|

---------------------------------------------------------------|
---------------------------------------------------------------|
---------------------------------------------------------------|
---------------------------------------------------------------|
-2-*-*-*-2--5-5-9-*-*-*-9--9--7--*-*-*-7--7-*-*-*-5--4-4-4-4---|
-2-2-2-2-2--5-5/9-9-9-9-9--9--7--7-7-7-7--7-5-5-5-5--4-4-4-4---|


2:50
GT1
---------------------------------------------------------------|
---------------------------------------------------------------|
---------------------------------------------------------------|
------------5-4-*-*-*-4-4--2--*-*-*-2-2------------------------|
-2-*-*-*-2--3-2-2-2-2-2-2--0--0-0-0-0-0--*-*-*-5--4-4-4-4------|
-2-2-2-2-2-------------------------------5-5-5-5--4-4-4-4------|
GT2
---------------------------------------------------------------|
---------------------------------------------------------------|
---------------------------------------------------------------|
------------10---9---------9--7---------7----4-5-7-5---4-------|
-7---9--10-----------7--6--------10--9-------------------------|
---------------------------------------------------------------|

GT1
---------------------------------------------------------------|
---------------------------------------------------------------|
---------------------------------------------------------------|
------------5-4-*-*-*-4-4--2--*-*-*-2-2------------------------|
-2-*-*-*-2--3-2-2-2-2-2-2--0--0-0-0-0-0--*-*-*-5--4-4-4-4------|
-2-2-2-2-2-------------------------------5-5-5-5--4-4-4-4------|
GT2
------------------------------------------------------------------------|
------------------------------------------------------------------------|
------------------------------------------------14----------------------|
------------10---9---------9--7-------7-14-16-17--17-16-----------------|
-7---9--10-----------7--6-------10--9-------------------15-14-12-14-12--|
----------------------------------------------------------------------13|

GT1
---------------------------------------------------------------|
---------------------------------------------------------------|
---------------------------------------------------------------|
---------------------------------------------------------------|
-2-*-*-*-2--5-5-9-*-*-*-9--9--7--*-*-*-7--7-*-*-*-5--4-4-4-4---|
-2-2-2-2-2--5-5/9-9-9-9-9--9--7--7-7-7-7--7-5-5-5-5--4-4-4-4---|
GT2
---------------------------------------------------------------|
---------------------------------------------------------------|
------------17--16--------16--14-----------14------------------|
14---16-17---------14-13----------17----16--------14---13------|
---------------------------------------------------------------|
---------------------------------------------------------------|

GT1
---------------------------------------------------------------|
---------------------------------------------------------------|
---------------------------------------------------------------|
---------------------------------------------------------------|
-2-*-*-*-2--5-5-9-*-*-*-9--9--7--*-*-*-7--7-*-*-*-5--4-4-4-4---|
-2-2-2-2-2--5-5/9-9-9-9-9--9--7--7-7-7-7--7-5-5-5-5--4-4-4-4---|
GT2
---------------------------------------------------------------|
------------------------------------------------17-----16------|
------------17--16--------16--14-----------14------------------|
14---16-17---------14-13----------17----16---------------------|
---------------------------------------------------------------|
---------------------------------------------------------------|


3:22
GT.1
--------------------------------------------------|
--------------------------------------------------|
--------------------------------------------------|
************************************************--|
777777777777777777777777333333333333333333333333--|
--------------------------------------------------|
GT.2
---------------------------------------------------------------|
---------------------------------------------------------------|
-///-///--///-------///--///--///---///-----///-----///--------|
--9---7----9---------7----9---10----12------10-------9---------|
---------------------------------------------------------------|
---------------------------------------------------------------|

GT.1
-------------------------------------------------|
-------------------------------------------------|
-------------------------------------------------|
***********************************************--|
666666666666666666666666222222222222222222222222-|
-------------------------------------------------|
GT.2
---------------------------------------------------------------|
---------------------------------------------------------------|
-///-///--///-------///--///--///---///-----///-----///--------|
--9---7----9---------7----9---10----12------10-------9---------|
---------------------------------------------------------------|
---------------------------------------------------------------|



GT.1
------------------------------------------------------------------|
------------------------------------------------------------------|
------------------------------------------------------------------|
****************************************************************--|
7777777777777777777777777777777733333333333333333333333333333333--|
------------------------------------------------------------------|
GT.2
---------------------------------------------------------------|
---------------------------------------------------------------|
-///-///--///-------///--///--///---///-----///-----///--------|
--9---7----9---------7----9---10----12------10-------9---------|
---------------------------------------------------------------|
---------------------------------------------------------------|

GT.1
-----------------------------------------------------------------|
-----------------------------------------------------------------|
-----------------------------------------------------------------|
****************************************************************-|
6666666666666666666666666666666622222222222222222222222222222222-|
-----------------------------------------------------------------|
GT.2
---------------------------------------------------------------|
------------------------------------------///-----///-------///|
-///-///--///-------///--///--///---///----9-------11-------12-|
--9---7----9---------7----9---10----12-------------------------|
---------------------------------------------------------------|
---------------------------------------------------------------|


3:41
----------------------------------------------------------------------|
----------------------------------------------------------------------|
--------------------------------------*-*----------------*-*------2-4-|
-*-*--4--5--2--4--1--*-*--4--5--2--4--5-5--4--5--2--4--1-4-4-4--5-----|
-2-2-----------------2-2--------------3-3----------------2-2----------|
-2-2-----------------2-2----------------------------------------------|


----------------------------------------------------------------------|
----------------------------------------------------------------------|
--------------------------------------*-*----------------*-*------2-4-|
-*-*--4--5--2--4--1--*-*--4--5--2--4--5-5--4--5--2--4--1-4-4-4--5-----|
-2-2-----------------2-2--------------3-3----------------2-2----------|
-2-2-----------------2-2----------------------------------------------|


---------------------------------------------------------------|
---------------------------------------------------------------|
---------------------------------------------------------------|
---------------------------------------------------------------|
-2-------------------------------------------------------------|
-2-|-----------------------------------------------------------|
Добавлено: 16.09.2013
Другие материалы по этой песне:

Страница создана 16.09.2013
http://primanota.ru/eyes-of-noctum/eyes-of-noctum-chords.htm
Привет, Гость.
Предлагаем пройти революционный курс по гитаре.
Подарок от PrimaNota.Ru, забирай!