PrimaNota.ru - самый крупный в мире бесплатный архив песенных текстов, аккордов, табулатур и нот


Eyes Of Noctum - Devils Wind - таба, видео

Регистрация Запомнить меня
Войти через:  Facebook Google Twitter Vk Yandex Mail.ru

Eyes Of Noctum - Devils Wind - таба, видео

Печатать
Просмотров: 126
eyes of noctum
devil's wind
eadgbe

*=palm mute


tabbed by andherembrace



-----------------------------------------------------------------|
-----------------------------------------------------------------|
-----------------------------------------------------------------|
-----------------------------------------------------------------|
-*-*-*-*---*-*-*---*-*-*---*-*-*-*-*-*-*---*-*-*---*-*-*---*-*-*-|
-0-0-0-0-3-0-0-0-2-0-0-0-5-0-0-0-0-0-0-0-3-0-0-0-2-0-0-0-5-0-0-0-|

-------------------------------------------------------------|
-------------------------------------------------------------|
-------------------------------------------------------------|
---------------------------------------------------------3---|
-*-*-*-*---*-*-*---*-*-*---*-*-*-*-*-*-*---*-*-*---*-*-*-1---|
-0-0-0-0-3-0-0-0-2-0-0-0-5-0-0-0-0-0-0-0-3-0-0-0-2-0-0-0-----|


-----------------------------------------------------------------|
-----------------------------------------------------------------|
-----------------------------------------------------------------|
-----------------------------------------------------------------|
-*-*-*-*---*-*-*---*-*-*---*-*-*-*-*-*-*---*-*-*---*-*-*---*-*-*-|
-0-0-0-0-3-0-0-0-2-0-0-0-5-0-0-0-0-0-0-0-3-0-0-0-2-0-0-0-5-0-0-0-|

-------------------------------------------------------------|
-------------------------------------------------------------|
---------------------------------------------------------3---|
---------------------------------------------------------5---|
-*-*-*-*---*-*-*---*-*-*---*-*-*-*-*-*-*---*-*-*---*-*-*-----|
-0-0-0-0-3-0-0-0-2-0-0-0-5-0-0-0-0-0-0-0-3-0-0-0-2-0-0-0-----|

0:12
-------------------------------------------------------------------|
-------------------------------------------------------------------|
-------------------------------------------------------------------|
************************************************-------------------|
222222222222222233333333333333332222222222222222-****---***---***--|
-------------------------------------------------0000-3-000-2-000-5|

--------------------------------------------------------------|
--------------------------------------------------------------|
--------------------------------------------------------------|
************************************************-2-2-2-2-2-2--|
222222222222222233333333333333332222222222222222-0-0-0-0-0-0--|
--------------------------------------------------------------|

-------------------------------------------------------------------|
-------------------------------------------------------------------|
-------------------------------------------------------------------|
************************************************-------------------|
222222222222222233333333333333332222222222222222-****---***---***--|
-------------------------------------------------0000-3-000-2-000-5|

--------------------------------------------------------------|
--------------------------------------------------------------|
--------------------------------------------------------------|
************************************************-2-2-2-2-2-2--|
222222222222222233333333333333332222222222222222-0-0-0-0-0-0--|
--------------------------------------------------------------|


0:35
---------------------------------------------------------|
---------------------------------------------------------|
-----------------------------------------------0------0--|
---------------------------------------------2------4----|
-2-*-3-*-2-2-*-2-*-3-*-2-2-*-2-*-3-*-2-2-*-3------5------|
-0-0-1-0-0-0-0-0-0-1-0-0-0-0-0-0-1-0-0-0-0---------------|

-----------------------------------------------------------|
-----------------------------------------------------------|
-----------------------------------------------0-----------|
---------------------------------------------2-------------|
-2-*-3-*-2-2-*-2-*-3-*-2-2-*-2-*-3-*-2-2-*-3-----2-3-2-0---|
-0-0-1-0-0-0-0-0-0-1-0-0-0-0-0-0-1-0-0-0-0-----------------|


---------------------|
---------------------|
-*-*-*-*-------------|
-3-3-3-3-3-3-3-3-----|
-1-1-1-1-1-1-1-1-----|
---------------------|


-----------------------------------------------------------------------|
-----------------------------------------------------------------------|
-----------------------------------------------------------------------|
-----------------------------------------------------------------------|
****---****---****---********--^----****---****---****---********--^---|
0000-8-0000-6-0000-5-00000000-3-5-3-0000-8-0000-6-0000-5-00000000-2-3-2|

-----------------------------------------------------------------------|
-----------------------------------------------------------------------|
-----------------------------------------------------------------------|
--------------------------------------------------------------------4-3|
****---****---****---********--^----****---****-****-********4-5-4--2-1|
0000-8-0000-6-0000-5-00000000-3-5-3-0000-8-0000600005000000002/3\2-0---|


0:59
--------------------------------------------------------------|
--------------------------------------------------------------|
-------------------------------------------------*-*-*--------|
************************************************-3-3-3-3333---|
222222222222222233333333333333332222222222222222-1-1-1-1111---|
--------------------------------------------------------------|


-------------------------------------------------------------------|
-------------------------------------------------------------------|
-------------------------------------------------------------------|
************************************************-------------------|
222222222222222233333333333333332222222222222222-****---***---***--|
-------------------------------------------------0000-3-000-2-000-5|

--------------------------------------------------------------|
--------------------------------------------------------------|
--------------------------------------------------------------|
************************************************-2-2-2-2-2-2--|
222222222222222233333333333333332222222222222222-0-0-0-0-0-0--|
--------------------------------------------------------------|

-------------------------------------------------------------------|
-------------------------------------------------------------------|
-------------------------------------------------------------------|
************************************************-------------------|
222222222222222233333333333333332222222222222222-****---***---***--|
-------------------------------------------------0000-3-000-2-000-5|

--------------------------------------------------------------|
--------------------------------------------------------------|
--------------------------------------------------------------|
************************************************-2-2-2-2-2-2--|
222222222222222233333333333333332222222222222222-0-0-0-0-0-0--|
--------------------------------------------------------------|


1:27
---------------------------------------------------------|
---------------------------------------------------------|
-----------------------------------------------0------0--|
---------------------------------------------2------4----|
-2-*-3-*-2-2-*-2-*-3-*-2-2-*-2-*-3-*-2-2-*-3------5------|
-0-0-1-0-0-0-0-0-0-1-0-0-0-0-0-0-1-0-0-0-0---------------|

-----------------------------------------------------------|
-----------------------------------------------------------|
-----------------------------------------------0-----------|
---------------------------------------------2-------------|
-2-*-3-*-2-2-*-2-*-3-*-2-2-*-2-*-3-*-2-2-*-3-----2-3-2-0---|
-0-0-1-0-0-0-0-0-0-1-0-0-0-0-0-0-1-0-0-0-0-----------------|


---------------------|
---------------------|
-*-*-*-*-------------|
-3-3-3-3-3-3-3-3-----|
-1-1-1-1-1-1-1-1-----|
---------------------|


-----------------------------------------------------------------------|
-----------------------------------------------------------------------|
-----------------------------------------------------------------------|
-----------------------------------------------------------------------|
****---****---****---********--^----****---****---****---********--^---|
0000-8-0000-6-0000-5-00000000-3-5-3-0000-8-0000-6-0000-5-00000000-2-3-2|

-----------------------------------------------------------------------|
-----------------------------------------------------------------------|
-----------------------------------------------------------------------|
--------------------------------------------------------------------4-3|
****---****---****---********--^----****---****-****-********4-5-4--2-1|
0000-8-0000-6-0000-5-00000000-3-5-3-0000-8-0000600005000000002/3\2-0---|



1:51
gt1
------------------------------------------------|
------------------------------------------------|
-***---**---**-***---------***---**---**-***----|
-222-5-22-4-22-000-2-------222-5-22-4-22-000-2--|
------------------------------------------------|
------------------------------------------------|
gt2
------------------------------------------------------|
------------------------------------------------------|
------------------------------------------------------|
------------------------------------------------------|
*-*-*-*-*-*-*-*-*-*-*-*-*---*-*-*-*-*-*-*-*-*-*-*-*-*-|
0-0-0-0-0-0-0-0-0-0-0-0-0---0-0-0-0-0-0-0-0-0-0-0-0-0-|

gt1
------------------------------------------------|
------------------------------------------------|
-***---**---**-***---------***---**---**-***----|
-222-5-22-4-22-000-2-------222-5-22-4-22-000-2--|
------------------------------------------------|
------------------------------------------------|
gt2
------------------------------------------------------|
------------------------------------------------------|
------------------------------------------------------|
------------------------------------------------------|
*-*-*-*-*-*-*-*-*-*-*-*-*---*-*-*-*-*-*-*-*-*-*-*-*-*-|
0-0-0-0-0-0-0-0-0-0-0-0-0---0-0-0-0-0-0-0-0-0-0-0-0-0-|



gt1
------------------------------------------------|
------------------------------------------------|
-***---**---**-********--***---**---********----|
-222-5-22-4-22-00044422--222-5-22-4-22557755----|
------------------------------------------------|
------------------------------------------------|
gt2
----------------------------------------------------|
----------------------------------------------------|
----------------------------------------------------|
----------------------------------------------------|
*-*-*-*-*-*-*-*-*-*-*-*-*-*-*-*-*-*-*-*-*-*-*-*-*-*-|
0-0-0-0-0-0-0-0-0-0-0-0-0-0-0-0-0-0-0-0-0-0-0-0-0-0-|


gt1
------------------------------------------------|
------------------------------------------------|
-***---**---**-********--***---**---**-*-**-22**|
-222-5-22-4-22-00044422--222-5-22-4-22-5-22---55|
------------------------------------------------|
------------------------------------------------|
gt2
----------------------------------------------------|
----------------------------------------------------|
----------------------------------------------------|
----------------------------------------------------|
*-*-*-*-*-*-*-*-*-*-*-*-*-*-*-*-*-*-*-*-*-*-*-*-*-*-|
0-0-0-0-0-0-0-0-0-0-0-0-0-0-0-0-0-0-0-0-0-0-0-0-0-0-|


higher harmony
---------------------------------------------------------------|
-5-00-8-00-7-00-3-00-5-0-3-0-5-00-8-00-7-00-8-00-10-0-8-0------|
---------------------------------------------------------------|
---------------------------------------------------------------|
---------------------------------------------------------------|
---------------------------------------------------------------|

---------------------------------------------------------------|
-5-00-8-00-7-00-3-00-5-0-3-0-5-00-8-00-7-00-8-00-10-0-8-0------|
---------------------------------------------------------------|
---------------------------------------------------------------|
---------------------------------------------------------------|
---------------------------------------------------------------|


---------------------------------------------------------------|
-8-00-12-00-10-00-7-00-8-0-7-0-8-00-12-00-10-00-12-00-13-0-12-0|
---------------------------------------------------------------|
---------------------------------------------------------------|
---------------------------------------------------------------|
---------------------------------------------------------------|

---------------------------------------------|
-8-00-12-00-10-00-7-00-8-0-7-0-8-00-12-00-10-|
---------------------------------------------|
---------------------------------------------|
---------------------------------------------|
---------------------------------------------|

2:11
-------------------------------------------------------------------|
-------------------------------------------------------------------|
-------------------------------------------------------------------|
************************************************-------------------|
222222222222222233333333333333332222222222222222-****---***---***--|
-------------------------------------------------0000-3-000-2-000-5|

--------------------------------------------------------------|
--------------------------------------------------------------|
--------------------------------------------------------------|
************************************************-2-2-2-2-2-2--|
222222222222222233333333333333332222222222222222-0-0-0-0-0-0--|
--------------------------------------------------------------|

-------------------------------------------------------------------|
-------------------------------------------------------------------|
-------------------------------------------------------------------|
************************************************-------------------|
222222222222222233333333333333332222222222222222-****---***---***--|
-------------------------------------------------0000-3-000-2-000-5|

--------------------------------------------------------------|
--------------------------------------------------------------|
--------------------------------------------------------------|
************************************************-2-2-2-2-2-2--|
222222222222222233333333333333332222222222222222-0-0-0-0-0-0--|
--------------------------------------------------------------|


2:34
-----------------------------------------------------------------------|
-----------------------------------------------------------------------|
-----------------------------------------------------------------------|
-----------------------------------------------------------------------|
****---****---****---********--^----****---****---****---********--^---|
0000-8-0000-6-0000-5-00000000-3-5-3-0000-8-0000-6-0000-5-00000000-2-3-2|

-----------------------------------------------------------------------|
-------------------------------------------------------------3333333---|
-------------------------------------------------------------5555555---|
-----------------------------------------------------------------------|
****---****---****---********--^----****---****-****-********----------|
0000-8-0000-6-0000-5-00000000-3-5-3-0000-8-000060000500000000----------|


-----------------------------------------------------------------------|
-----------------------------------------------------------------------|
-----------------------------------------------------------------------|
-----------------------------------------------------------------------|
****---****---****---********--^----****---****---****---********--^---|
0000-8-0000-6-0000-5-00000000-3-5-3-0000-8-0000-6-0000-5-00000000-2-3-2|

----------------------------------------------------------------|
----------------------------------------------------------------|
----------------------------------------------------------------|
----------------------------------------------------------------|
****---****---****---********--^----****---****-****-********---|
0000-8-0000-6-0000-5-00000000-3-5-3-0000-8-000060000500000000---|


---------------------------------------------------------------|
---------------------------------------------------------------|
---------------------------------------------------------------|
---------------------------------------------------------------|
-********-2------9--8-------3--2-------------------------------|
-33332233-0-----/7--6-------1--0-------------------------------|
Добавлено: 26.09.2013
Другие материалы по этой песне:
  • Аккорды и текст

Страница создана 26.09.2013
http://primanota.ru/eyes-of-noctum/devils-wind-chords.htm
Привет, Гость.
Предлагаем пройти революционный курс по гитаре.
Подарок от PrimaNota.Ru, забирай!