PrimaNota.ru - самый крупный в мире бесплатный архив песенных текстов, аккордов, табулатур и нот


Eyes Of Noctum - Annihilate - таба, видео

Регистрация Запомнить меня
Войти через:  Facebook Google Twitter Vk Yandex Mail.ru

Eyes Of Noctum - Annihilate - таба, видео

Печатать
Просмотров: 96
Уроки эстрадного вокала в Санкт-Петербурге
Eyes Of Noctum
Annihilate
I was told to put the website in because this band couldn't be found in your database.

http://www.eyesofnoctumofficial.com/

DADGBE

*=PALM MUTE
|=STOP NOTE

TABBED BY andherembrace

---------------------------------------------------------------|
---------------------------------------------------------------|
---------------------------------------------------------------|
---------------------------------------------------------------|
-8-7--5--4--5-4-0--0--0--0--0--8-7--5--4--5-4-0--0--0--0--0----|
-8-7|-5|-4|-5-4-0|-0|-0|-0|-0|-8-7|-5|-4|-5-4-0|-0|-0|-0|-0|---|

---------------------------------------------------------------|
---------------------------------------------------------------|
---------------------------------------------------------------|
---------------------------------------------------------------|
-8-7--5--4--5-4-0--0--0--0--0--8-7--5--4--5-4-0--0--0--0--0----|
-8-7|-5|-4|-5-4-0|-0|-0|-0|-0|-8-7|-5|-4|-5-4-0|-0|-0|-0|-0|---|


0:11
--------------------------------------------------------|
--------------------------------------------------------|
--------------------------------------------------------|
--------------------------------------------------------|
-3-**-3-**-3-*-3-**-4-****-3-**-3-**-3-*-3-**-4-****----|
-3-00-3-00-3-0-3-00-4-4444-3-00-3-00-3-0-3-00-4-4444----|


--------------------------------------------------------|
--------------------------------------------------------|
--------------------------------------------------------|
--------------------------------------------------------|
-3-**-3-**-3-*-3-**-4-****-3-**-3-**-3-*-3-**-4-****----|
-3-00-3-00-3-0-3-00-4-4444-3-00-3-00-3-0-3-00-4-4444----|


0:22
---------------------------------------------------------------|
---------------------------------------------------------------|
---------------------------------------------------------------|
-*---*-*--*-*---*---*-*--*-*--*---*-*--*-*---*---*-*--*-*------|
-0---0-0--0-0---0---0-0--0-0--1---1-1--1-1---3---3-1--1-1------|
-0---0-0--0-0---0---0-0--0-0--1---1-1--1-1---3---3-1--1-1------|

---------------------------------------------------------------|
---------------------------------------------------------------|
---------------------------------------------------------------|
-*---*-*--*-*---*---*-*--*-*--*---*-*--*-*---*---*-*--*-*------|
-0---0-0--0-0---0---0-0--0-0--1---1-1--1-1---3---3-1--1-1------|
-0---0-0--0-0---0---0-0--0-0--1---1-1--1-1---3---3-1--1-1------|

---------------------------------------------------------------|
---------------------------------------------------------------|
---------------------------------------------------------------|
-*---*-*--*-*---*---*-*--*-*--*---*-*--*-*---*---*-*--*-*------|
-0---0-0--0-0---0---0-0--0-0--1---1-1--1-1---3---3-1--1-1------|
-0---0-0--0-0---0---0-0--0-0--1---1-1--1-1---3---3-1--1-1------|

-----------------------------------------------------------|
-----------------------------------------------------------|
-----------------------------------------------------------|
-*---*-*--*-*---*---*-*--*-*--*---*-*--*-*---*---*-*-------|
-0---0-0--0-0---0---0-0--0-0--1---1-1--1-1---3---3-1-------|
-0---0-0--0-0---0---0-0--0-0--1---1-1--1-1---3---3-1-------|


0:43
-----------------------------------------------------------------|
-----------------------------------------------------------------|
-----------------------------------------------------------------|
-----------------------------------------------------------------|
****************************************************************-|
0000000000000000000000000000000011111111111111113333333311111111-|

-----------------------------------------------------------------|
-----------------------------------------------------------------|
-----------------------------------------------------------------|
-----------------------------------------------------------------|
****************************************************************-|
0000000000000000000000000000000011111111111111113333333311111111-|

-----------------------------------------------------------------|
-----------------------------------------------------------------|
-----------------------------------------------------------------|
-----------------------------------------------------------------|
****************************************************************-|
0000000000000000000000000000000011111111111111113333333311111111-|

--------------------------------------------------------|
--------------------------------------------------------|
--------------------------------------------------------|
------------------------------------------------*-*-*-*-|
************************************************3-3-3-1-|
0000000000000000000000000000000011111111111111113-3-3-1-|


1:05
--------------------------------------------------------|
--------------------------------------------------------|
--------------------------------------------------------|
--------------------------------------------------------|
-3-**-3-**-3-*-3-**-4-****-3-**-3-**-3-*-3-**-4-****----|
-3-00-3-00-3-0-3-00-4-4444-3-00-3-00-3-0-3-00-4-4444----|

--------------------------------------------------------|
--------------------------------------------------------|
--------------------------------------------------------|
--------------------------------------------------------|
-3-**-3-**-3-*-3-**-4-****-3-**-3-**-3-*-3-**-4-****----|
-3-00-3-00-3-0-3-00-4-4444-3-00-3-00-3-0-3-00-4-4444----|


1:15
-------------------------------------------------------------|
-------------------------------------------------------------|
-------------------------------------------------------------|
-------------------------------------------------------------|
-8--*-8--*-8--7--*-7--*-7-*-10---*-10---*-10--9--*-9--*-9----|
-8|-8-8|-8-8|-7|-7-7|-7-7|--10|-10-10|-10-10|-9|-9-9|-9-9|---|

-------------------------------|
-------------------------------|
-------------------------------|
-------------------------------|
-8--*-8--*-8--7--*-7--*-7------|
-8|-8-8|-8-8|-7|-7-7|-7-7|-----|


1:23
---------------------------------------------------------------|
---------------------------------------------------------------|
---------------------------------------------------------------|
-*---*-*--*-*---*---*-*--*-*--*---*-*--*-*---*---*-*--*-*------|
-0---0-0--0-0---0---0-0--0-0--1---1-1--1-1---3---3-1--1-1------|
-0---0-0--0-0---0---0-0--0-0--1---1-1--1-1---3---3-1--1-1------|

---------------------------------------------------------------|
---------------------------------------------------------------|
---------------------------------------------------------------|
-*---*-*--*-*---*---*-*--*-*--*---*-*--*-*---*---*-*--*-*------|
-0---0-0--0-0---0---0-0--0-0--1---1-1--1-1---3---3-1--1-1------|
-0---0-0--0-0---0---0-0--0-0--1---1-1--1-1---3---3-1--1-1------|


1:34
-----------------------------------------------------------------|
-----------------------------------------------------------------|
-----------------------------------------------------------------|
-----------------------------------------------------------------|
****************************************************************-|
0000000000000000000000000000000011111111111111113333333311111111-|

------------------------------------------------------------|
------------------------------------------------------------|
------------------------------------------------------------|
------------------------------------------------*-*-*-*-*-*-|
************************************************3-3-3-1-1-1-|
0000000000000000000000000000000011111111111111113-3-3-1-1-1-|


1:45
--------------------------------------------------------|
--------------------------------------------------------|
--------------------------------------------------------|
--------------------------------------------------------|
-3-**-3-**-3-*-3-**-4-****-3-**-3-**-3-*-3-**-4-****----|
-3-00-3-00-3-0-3-00-4-4444-3-00-3-00-3-0-3-00-4-4444----|

--------------------------------------------------------|
--------------------------------------------------------|
--------------------------------------------------------|
--------------------------------------------------------|
-3-**-3-**-3-*-3-**-4-****-3-**-3-**-3-*-3-**-4-****----|
-3-00-3-00-3-0-3-00-4-4444-3-00-3-00-3-0-3-00-4-4444----|


1:55
---------------------------------------------------------------|
---------------------------------------------------------------|
---------------------------------------------------------------|
---------------------------------------------------------------|
-8-7--5--4--5-4-0--0--0--0--0--8-7--5--4--5-4-0--0--0--0--0----|
-8-7|-5|-4|-5-4-0|-0|-0|-0|-0|-8-7|-5|-4|-5-4-0|-0|-0|-0|-0|---|

---------------------------------------------|
---------------------------------------------|
---------------------------------------------|
---------------------------------------------|
-8-7--5--4--5-4-0--0--0--0--0--8-7--5--4--5--|
-8-7|-5|-4|-5-4-0|-0|-0|-0|-0|-8-7|-5|-4|-5--|



2:05
---------------------------------------------------------------|
---------------------------------------------------------------|
---------------------------------------------------------------|
*-*---*-*-------*-*---*-*--------*-*---*-*--------*-*---*-*----|
1-1---1-1-------1-1---1-1--------1-1---1-1--------1-1---1-1----|
1-1---1-1-------1-1---1-1--------1-1---1-1--------1-1---1-1----|

---------------------------------------------------------------|
---------------------------------------------------------------|
---------------------------------------------------------------|
*-*---*-*-------*-*---*-*--------*-*---*-*--------*-*---*-*----|
1-1---1-1-------1-1---1-1--------1-1---1-1--------1-1---1-1----|
1-1---1-1-------1-1---1-1--------1-1---1-1--------1-1---1-1----|

---------------------------------------------------------------|
---------------------------------------------------------------|
---------------------------------------------------------------|
*-*---*-*-------*-*---*-*--------*-*---*-*--------*-*---*-*----|
1-1---1-1-------1-1---1-1--------1-1---1-1--------1-1---1-1----|
1-1---1-1-------1-1---1-1--------1-1---1-1--------1-1---1-1----|

---------------------------------------------------------------|
---------------------------------------------------------------|
---------------------------------------------------------------|
*-*---*-*-------*-*---*-*--------*-*---*-*--------*-*---*-*----|
1-1---1-1-------1-1---1-1--------1-1---1-1--------1-1---1-1--\-|
1-1---1-1-------1-1---1-1--------1-1---1-1--------1-1---1-1--\-|


2:47
------------------------------------------------------------------------|
------------------------------------------------------------------------|
------------------------------------------------------------------------|
---------------------------------------------------------*-*-*-*--------|
3-0000-3-0000-3-00-3-0000-3-0000-3-00-4-0000-4-0000-4-00-4-3-1-3-4-3-1-3|
3-0000-3-0000-3-00-3-0000-3-0000-3-00-4-0000-4-0000-4-00-4-3-1-3-4\3-1-3|

------------------------------------------------------------------------|
------------------------------------------------------------------------|
------------------------------------------------------------------------|
---------------------------------------------------------*-*-*-*--------|
3-0000-3-0000-3-00-3-0000-3-0000-3-00-4-0000-4-0000-4-00-4-3-1-3-4-3-1-3|
3-0000-3-0000-3-00-3-0000-3-0000-3-00-4-0000-4-0000-4-00-4-3-1-3-4\3-1-3|


2:58
-----------------------------------------------------------------|
-----------------------------------------------------------------|
-----------------------------------------------------------------|
-----------------------------------------------------------------|
****************************************************************-|
0000000000000000000000000000000011111111111111113333333311111111-|

--------------------------------------------------------|
--------------------------------------------------------|
--------------------------------------------------------|
------------------------------------------------*-*-*-*-|
************************************************3-3-3-1-|
0000000000000000000000000000000011111111111111113-3-3-1-|


3:08
-----------------------------------------------------------------|
-----------------------------------------------------------------|
-----------------------------------------------------------------|
-----------------------------------------------------------------|
****************************************************************-|
0000000000000000000000000000000011111111111111113333333311111111-|

------------------------------------------------------------|
------------------------------------------------------------|
------------------------------------------------------------|
------------------------------------------------*-*-*-*-*-*-|
************************************************3-3-3-1-1-1-|
0000000000000000000000000000000011111111111111113-3-3-1-1-1-|

3:19
--------------------------------------------------------|
--------------------------------------------------------|
--------------------------------------------------------|
--------------------------------------------------------|
-3-**-3-**-3-*-3-**-4-****-3-**-3-**-3-*-3-**-4-****----|
-3-00-3-00-3-0-3-00-4-4444-3-00-3-00-3-0-3-00-4-4444----|

--------------------------------------------------------|
--------------------------------------------------------|
--------------------------------------------------------|
--------------------------------------------------------|
-3-**-3-**-3-*-3-**-4-****-3-**-3-**-3-*-3-**-4-****----|
-3-00-3-00-3-0-3-00-4-4444-3-00-3-00-3-0-3-00-4-4444----|

3:30
-----------------------------------------------------------------------|
-----------------------------------------------------------------------|
-----------------------------------------------------------------------|
-----------------------------------------------------------------------|
---****---****---**---****---******---****---****---**---****---******-|
-3-0000-3-0000-3-00-3-0000-4-444444-3-0000-3-0000-3-00-3-0000-4-444444-|

--------------------------------------------------------------|
--------------------------------------------------------------|
--------------------------------------------------------------|
--------------------------------------------------------------|
---****---****---**---****---******-3-**-3-**-3-*-3-**-4-****-|
-3-0000-3-0000-3-00-3-0000-4-444444-3-00-3-00-3-0-3-00-4-4444-|
Добавлено: 25.11.2013
Другие материалы по этой песне:
  • Аккорды и текст

Страница создана 25.11.2013
http://primanota.ru/eyes-of-noctum/annihilate-chords.htm
Привет, Гость.
Предлагаем пройти революционный курс по гитаре.
Подарок от PrimaNota.Ru, забирай!