PrimaNota.ru - самый крупный в мире бесплатный архив песенных текстов, аккордов, табулатур и нот


E.Y. Harburg - Over The Rainbow (feat. Harold Arlen) - текст песни, таба, видео

Регистрация Запомнить меня
Войти через:  Facebook Google Twitter Vk Yandex Mail.ru

E.Y. Harburg - Over The Rainbow (feat. Harold Arlen) - текст песни, таба, видео

Печатать
Просмотров: 236
Уроки эстрадного вокала в Санкт-Петербурге
Авторы музыки: Harold Arlen
Авторы текста: Yip Harburg
I did the arrangement from this youtube video. Hope it's still there when you look.

http://www.youtube.com/watch?v=iWIj4hbK8WM 




Track 1
                                                          
D ||--0-------------0-----11--|--12-------------12-------|
A ||----------0---------------|-----------0--------------|
F#||--------------------------|--------------------------|
D ||-------0-----------0------|--------0------------0----|
A ||--------------------------|--------------------------|
D ||--0----------0------------|--0-----------0-----------|


                                                                             
--11----------7--9-------|--11----------11--12-----|------------------------|
-----------0-------------|-----------0-------------|--5-------------5-------|
-------------------------|-------------------------|----------5-------------|
--------0-----------0----|--------0-------------0--|-------5-----------5----|
-------------------------|-------------------------|------------------------|
--0-----------0----------|--0-----------0----------|--5----------5----------|


                                                                            
--9-------------9-------|--7-------------7-------|-----7-------------------|
------------------------|----------7-------------|--9--------9-----7-------|
----------5-------------|------------------------|-------------------------|
-------5-----------5----|-------0-----------0----|--------0-----------0----|
------------------------|------------------------|-------------------------|
--5----------5----------|--0----------0----------|--0-----------0----------|


                                                                            
------------------------|--5-------------5-------|-------------------------|
----------5-----5-------|----------5-------------|--7--9--------5--7-------|
--5---------------------|------------------------|-----------0-------------|
-------5-----------5----|-------5-----------5----|--------0-----------0----|
------------------------|------------------------|-------------------------|
--5----------5----------|--5----------5----------|--0-----------0----------|


                                                                             
-------------------------|------------------------|-------------------------|
--9----------9--10-------|--7---------------------|--7--------7-----9-------|
----------0--------------|----------7h----8-------|-----7-------------------|
-------0------------0----|-------7-----------7----|--------7-----------7----|
-------------------------|------------------------|-------------------------|
--0----------0-----------|--7----------7----------|--7-----------7----------|


                                                                          
--0--------12----11----|--9----7----4----2----|--0-------------0-----11--|
-----------------------|----------------------|----------0---------------|
-----------12----10----|--8----7----3----1----|--------------------------|
--0--------------------|----------------------|-------0-----------0------|
-----------------------|----------------------|--------------------------|
-----------------------|----------------------|--0----------0------------|


                                                                               
--12-------------12-------|--11----------7--9-------|--11----------11--12-----|
-----------0--------------|-----------0-------------|-----------0-------------|
--------------------------|-------------------------|-------------------------|
--------0------------0----|--------0-----------0----|--------0-------------0--|
--------------------------|-------------------------|-------------------------|
--0-----------0-----------|--0-----------0----------|--0-----------0----------|


                                                                            
------------------------|--9-------------9-------|--7--------------7-------|
--5-------------5-------|------------------------|----------10-------------|
----------5-------------|----------5-------------|-------------------------|
-------5-----------5----|-------5-----------5----|-------0------------0----|
------------------------|------------------------|-------------------------|
--5----------5----------|--5----------5----------|--0-----------0----------|


                                                                            
-----7-----------7-------|------------------------|--5-------------5-------|
--9--------7-------------|----------5-----5-------|----------5-------------|
-------------------------|--5---------------------|------------------------|
--------0-----------0----|-------5-----------5----|-------5-----------5----|
-------------------------|------------------------|------------------------|
--0-----------0----------|--5----------5----------|--5----------5----------|


                                                                             
-------------------------|-------------------------|------------------------|
--7--9--------5--7-------|--9----------9--10-------|--7-------------7-------|
-----------0-------------|----------0--------------|----------7-------------|
--------0-----------0----|-------0------------0----|-------7-----------7----|
-------------------------|-------------------------|------------------------|
--0-----------0----------|--0----------0-----------|--7----------7----------|


                                                                             
------------------------|--0-------------0-------|--0--0--------------------|
--9p-7------------------|----------0-------------|-----------0-----9--12----|
-----------8p-7---------|------------------------|--------------------------|
--------7----------7----|-------0-----------0----|--------0-----------------|
------------------------|------------------------|--------------------------|
--7-----------7---------|--0----------0----------|--0-----------0-----------|


                                                                                
-----7-----------7-------|-----7-----------7-------|------7------------7-------|
--9--------9-------------|--9--------9-------------|--10--------10-------------|
-------------------------|-------------------------|---------------------------|
--------0-----------0----|--------0-----------0----|---------0------------0----|
-------------------------|-------------------------|---------------------------|
--0-----------0----------|--0-----------0----------|--0-------------0----------|


                                                                                
------7------------7-----7--|--9----------------------|-------------------7----|
--10--------10--------------|----------9-----9--------|--9-------------9-------|
----------------------------|----------------------0--|----------0-------------|
---------0------------0-----|-------0-----------0-----|-------0----------------|
----------------------------|-------------------------|------------------------|
--0-------------0-----------|--0----------0-----------|--0----------0----------|


                                                                                
-----7-----------7-------|-----7-----------7-------|------9------------9-------|
--9--------9-------------|--9--------9-------------|--11--------11-------------|
--8--------8-------------|--8--------8-------------|--10--------10-------------|
--------0-----------0----|--------0-----------0----|---------0------------0----|
-------------------------|-------------------------|---------------------------|
--0-----------0----------|--0-----------0----------|--0-------------0----------|


                                                          
------9------------9-------|--11--------------11---------|
--11--------11-------------|-----------12------------12--|
--10--------10-------------|-----------------------------|
---------0------------0----|--------0-------------0------|
---------------------------|-----------------------------|
--0-------------0----------|--0------------0-------------|


                             
--11--------------11-------||
-----------12--------------||
---------------------------||
--------0-------------0----||
---------------------------||
--0------------0-----------||
Добавлено: 28.05.2012
Другие материалы по этой песне:

Страница создана 20.03.2012
http://primanota.ru/ey-harburg/over-the-rainbow-chords.htm
Привет, Гость.
Предлагаем пройти революционный курс по гитаре.
Подарок от PrimaNota.Ru, забирай!