PrimaNota.ru - самый крупный в мире бесплатный архив песенных текстов, аккордов, табулатур и нот


Exumer - Fallen Saint - таба, видео

Регистрация Запомнить меня
Войти через:  Facebook Google Twitter Vk Yandex Mail.ru

Exumer - Fallen Saint - таба, видео

Печатать
Просмотров: 108
Fallen Saint
Song by Exumer
From the album: Possessed By Fire
Tabbed by: AleThrasher

Break 1     Riff 1
E/--------|---------------------------------|-------------|
B/--------|---------------------------------|-------------|
G/--------|---------------------------------|-------------|
D/-21\12--|-2-------------------------------|-12---11-7-9-|
A/-21\12--|-2-------------------------------|-10---9--5-7-|
E/-21\12--|-0-0000000000000000000000000000--|-------------|
              ****************************



Riff 2
E/-----------------------------|
B/-----------------------------|
G/-----------------------------|
D/-----------------------------|
A/-7~~---7~~---7h8---7~~-------|
E/----00----00----00----00-8p7-|
      **    **    **    **
Break 2
E/-----------------------------------|
B/-----------------------------------|
G/-----------------------------------|
D/-----------------------------------|
A/-----------------------------------|
E/-8888888888888888-7777777777777777-|
   **************** ****************

E/-----------------------------------|
B/-----------------------------------|
G/-----------------------------------|
D/-----------------------------------|
A/-----------------------------------|
E/-333333333333333-22222222222222222-|
   *************** *****************
Break 3
E/-------------------------------|
B/-------------------------------|
G/--------------------4444444444-|
D/------5------4------4444444444-|
A/------5------4------2222222222-|
E/-0-00-3-0-00-2-0-00------------|
   * **   * **   * **

Riff 3
E/-------|---|---|---------------|
B/-------|---|---|---------------|
G/-------|---|---|---------------|
D/-----2-|-5-|-7-|-5-4---------2-|
A/-545-2-|-5-|-7-|-3-2-7-5-4-5-2-|
E/-323-0-|-3-|-5-|-----5-3-2-3-0-|
   ***
Riff 4                           Break 4
E/-------------------------|---| |22^-22^-22^-22^|
B/-------------------------|---|
G/-------------------------|---|
D/---4-3--4--3--3333-------|-2-|
A/---2-1--2--1--1111-------|-2-|
E/-00-0-00-00--------1-2-1-|-0-|

The solo is fucking mad, so, i'm still trying to figure it out xD

So, the order to play the song is this
Break 1 X1
RifF 1 x6
Riff 2 x4
Riff 1 x6
Riff 2 x4
Break 2 x1
Break 3 x4
Riff 3 x2
Riff 4 x8
Break 4 x1
Riff 4 x6
Break 4 x1
Solo
Riff 1 x6
Riff 2 x4

Hope you enjoy it! Send me a message to amonteroq21@hotmail.com and tell wich tab 
do you want me to submit.
PD: Sorry for my bad english
And remember...... THRASH 'TIL DEATH!
Добавлено: 27.07.2013
Вам также может быть интересно:
Другие материалы по этой песне:

Страница создана 12.03.2012
http://primanota.ru/exumer/fallen-saint-chords.htm
Привет, Гость.
Предлагаем пройти революционный курс по гитаре.
Подарок от PrimaNota.Ru, забирай!