PrimaNota.ru - самый крупный в мире бесплатный архив песенных текстов, аккордов, табулатур и нот


Extremoduro - So Payaso - таба, бас-таба, видео

Регистрация Запомнить меня
Войти через:  Facebook Google Twitter Vk Yandex Mail.ru

Extremoduro - So Payaso - таба, бас-таба, видео

Печатать
Просмотров: 192
-------------------------------------------------------------------------------
                                So Payaso - Extremoduro
-------------------------------------------------------------------------------

Tabbed by: Jacob Ferguson -found tab on spanish web site
http://lacuerda.net/tabs/e/extremoduro/so_payaso-2.shtml
Email:-funnyguyfergie@yahoo.com

Tuning: Standard

[5]=note isn't required


INTRO

e|-----------------------------------------------------------|
B|-----------------------------------------------------------|
G|-----------------------------------------------------------|
D|-----5--5--4---0--2--4--[5]----5--5--4--0--0--0--4---5-----|
A|-----------------------------------------------------------|
E|--0-------------------------0------------------------------|
    

                          
e|--------------------------|--------------(0)---(0)---------|
B|----0--------0---------0--|-----------------(0)----(0)-----|
G|----0--------0---------0--|-------4--4--4------------------|
D|-----------------------0--|-------5--5--4------------------|
A|--3---3---7-----7---4-----|--------------------------------|
E|--------------------------|----0---------------------------|
    
     
e|---------0---------0----------0----------0----------0------|
B|-------0---0-----0---0------0---0------0---0------0---0----|
G|-----0---------0----------0----------0----------0----------|
D|-----------------------------------------------------------|
A|--3----------7----------3----------7----------3------------|
E|-----------------------------------------------------------|


e|---------0---------0--------|-------------------------------|
B|-------0---0-----0----------|-------------------------------|
G|-----0---------0------6\sl--|-------------------------------|
D|----------------------6\sl--|-------------------------------|
A|--7----------4--------4\sl--|-------------------------------|
E|----------------------------|-------------------------------|

e|-----------------------------------------------------------|
B|-----------------------------------------------------------|
G|-----------------------------------------------------------|
D|-----------------------------------------------------------|
A|-----------------------------------------------------------|
E|---0--0--2--3----0--0--2--3----0--0--2--3----0--0--2--3----|


e|---------------------------------------------------------------|
B|---------------------------------------------------------------|
G|----------5------------9-------------6-------------------------|
D|----------5-x8---------9-x8----------6-x16---------------------|
A|----------3------------7-------------4-------------------------|
E|---2--0---------2--0----------2--0-----------------------------|

| /  slide up
| \  slide down
| h  hammer-on
| p  pull-off
| ~  vibrato
| +  harmonic
| x  Mute note
===============================================================================
Добавлено: 15.05.2012
Другие материалы по этой песне:

Страница создана 29.03.2012
http://primanota.ru/extremoduro/so-payaso-chords.htm
Привет, Гость.
Предлагаем пройти революционный курс по гитаре.
Подарок от PrimaNota.Ru, забирай!