PrimaNota.ru - самый крупный в мире бесплатный архив песенных текстов, аккордов, табулатур и нот


Extremoduro - Que Sonrisa Tan Rara - бас-таба, видео

Регистрация Запомнить меня
Войти через:  Facebook Google Twitter Vk Yandex Mail.ru

Extremoduro - Que Sonrisa Tan Rara - бас-таба, видео

Печатать
Просмотров: 166
Уроки эстрадного вокала в Санкт-Петербурге
Intro: (opcional)
g |-----------------------------------------------------------|
d |-----------------12------12--5--5--------------------------|
a |------------5-------5--------------------------------------|
e |-----------------------------------5-----------------------|
     Adivina...            ...pantanos de toa Extremadura.


g |----------------|------------77------7------77-------7---------------|
d |----------------|-----------7--7----7-7----7--7-----7-7---------6----|
a |---55-55-55-5-5-|-------5-5-----5-5-----5-5-----5-5----->>7----8--8--|
e |----------------|------------------------------------------7-0-------|
                    Disimula...

g |---------------------------------------77-----7-----77------7-------
d |-----------6--------------------------7--7---7-7---7--7---7---7-----
a |-->>7----8---8-7777-6666-77777777--5-5----5-5---5-5----5-5----------
e |-----7-0------------------------------------------------------------


g |------------------------------------------------|
d |------------6------------6----------------------|
a |-->>7-----8---8--7-----8---8--7777666677777777--|
e |------7-0----------7-0--------------------------|

ESTRIBILLO
g |--------------------------------------------------------------------------|
d |--------------------------------------------------------------------------|
a |----------------------333222-------5555555--------------------------------|
e |-111111111111113333333------1111111-------3333333>>88877707777777777777778|
      Dejadme de hablar...      la, la.

g |----------------|------------77------7------77-------7---------------|
d |----------------|-----------7--7----7-7----7--7-----7-7---------6----|
a |---55-55-55-5-5-|-------5-5-----5-5-----5-5-----5-5----->>7----8--8--|
e |----------------|------------------------------------------7-0-------|
                    Cada mañana...

g |---------------------------------------77-----7-----77------7-------|
d |-----------6--------------------------7--7---7-7---7--7---7---7-----|
a |-->>7----8---8-7777-6666-77777777--5-5----5-5---5-5----5-5----------|
e |-----7-0------------------------------------------------------------|


g |-------------------------5----------------------|
d |------------6------9-6--------------------------|
a |-->>7-----8---8--7-----8---8--7777666677777777--|
e |------7-0---------------------------------------|


ESTRIBILLO


PUNTEO FINAL (¡ Ole !)
g---------------|------9------------------99---------------|
d---------------|-----9-----10-10-9-10---9-----10-10-9-10--|  Etc, etc.
a--55-55-55-5-5-|---7-----8-------------7----8-------------|
e---------------|------------------------------------------|
Добавлено: 13.07.2012
Другие материалы по этой песне:
  • Аккорды и текст

Страница создана 13.07.2012
http://primanota.ru/extremoduro/que-sonrisa-tan-rara-chords.htm
Привет, Гость.
Предлагаем пройти революционный курс по гитаре.
Подарок от PrimaNota.Ru, забирай!