PrimaNota.ru - самый крупный в мире бесплатный архив песенных текстов, аккордов, табулатур и нот


Extremoduro - Necesito Drogas Y Amor - таба, видео

Регистрация Запомнить меня
Войти через:  Facebook Google Twitter Vk Yandex Mail.ru

Extremoduro - Necesito Drogas Y Amor - таба, видео

Печатать
Просмотров: 123
La parte ritmica es la ke hace Robe ke la oimos en el auricular izquierdo
el solo lo hace el uoho

e ------------------------------------   -----------------------------------|
B ------------------------------------   -----------------------------1-----|
G ---2---5---4---2---4---5---4-------2   --5---4---2---4---5---4------2-----|
D ---2---3---2---0---2---3---2---5---2   --3---2---0---2---3---2--5---3--10-|
A ---0---------------------------3---0   -------------------------3---3--8--|
E ------------------------------------   -----------------------------------|
                 2 veces

e-----------------------------------  -------------------------------------|
B-----------------------------------  --------------------------------1----|
G-----------------------------------  -2------------------------------2----|
D---------3---2---0---2---3---2-----  -2--2-3-0-2---0-----------------3----|
A---0-0-0---0---0---0---0---0---0--3  -0----------3---2-3-0-2--0------3----|
E-----------------------------------  ------------------------3--3-1-0-----|
                3 veces


e-------------------------------------------------------------------|
B--1-0---0-----------1-0---0----------1-0---0-----------------------|
G------2---2-0---0-------2---2-0---0------2---2-0---0---------------|
D--------------3-----------------3----------------3---3-2-0---------|
A-----------------------------------------------------------3-2-0-3-|
E-------------------------------------------------------------------|

e---------------------------------------------------------------------|
B---------------------------------------------------------------------|
G---------------------------------------------------------------------|
D---------3---2---0---2---3---2--------------3---2---3-2-0------------|
A---0-0-0---0---0---0---0---0---0--3---0-0-0---0---0--------3-2-0-----|
E-----------------------------------------------------------------3-0-|


e------------------------------------------------|         Riff 1 se repite 2 veces
B--1----5----3----5----1----5----3----0----------|
G--2----6----4----6----2----6----4----1----------|
D--3----7----5----7----3----7----5----2----------|
A--3----7----5----7----3----7----5----2----------|
E------------------------------------------------|


e----------------------------------------       Riff 2-|
B---1----3-------------------------1----3--------------|
G---2----4----7----9----10---12----2----4--------------|
D---3----5----7----9----10---12----3----5--------------|
A---3----5----5----7----8----10----3----5--------------|
E------------------------------------------------------|


e------------------------------------------------|           Riff 3 2 veces
B-------3----5----1------------------------------|
G--5----4----5----2------------------------------|
D--5----5----7----3------------------------------|
A--3----5----7----3------------------------------|
E------------------------------------------------|


e------------------------------------------------|                Riff 3 2 veces
B--5----3----1----0----5---3---------------------|
G--5----4----2----1----5---4---7-----------------|
D--7----5----3----2----7---5---7-----------------|
A--7----5----3----2----7---5---5-----------------|
E------------------------------------------------|

Riff 2 2 veces
Riff 1 2 veces
empieza el solo y los riff 1 y 2 se suceden


Solo


e---------------------------------------------------|  2 veces
B-----------5----------------5-6-------------5-6-8--|
G-5-5-4-7-5---7----5-5-4-7-5-------5-5-4-7-5--------|
D---------------------------------------------------|
A---------------------------------------------------|
E---------------------------------------------------|


e----------------------------------|       2veces
B--6-5-----5-----------------------|
G------7-5---7-5-4-7-5-4---5-4-----|
D------------------------7-----7-5-|
A----------------------------------|
E----------------------------------|


e-----------------5---------------7-5-------------8-7-5---5-----|
B-8-6-5---6-5-------8-6-5-6-5---------8-6-8-6-5---------8---8-6-|
G-------7-----7-5-------------7-5---------------7---------------|
D---------------------------------------------------------------|
A---------------------------------------------------------------|
E---------------------------------------------------------------|
                             1 vez

e----------------------5---7-5-8-7-10-8--13-12-------------------------|
B----------5---6-5-8-6---8---------------------15-13-15----------------|
G-5-5-4-7-5--7------------------------------------------12-------------|
D----------------------------------------------------------9-----------|
A----------------------------------------------------------------------|
E----------------------------------------------------------------------|

e----------------------5---7-5-8-7-10-8--13-12-------15--------------|
B----------5---6-5-8-6---8---------------------15-13-----------------|
G-5-5-4-7-5--7-------------------------------------------------------|
D--------------------------------------------------------------------|
A--------------------------------------------------------------------|
E--------------------------------------------------------------------|
Добавлено: 13.04.2012
Другие материалы по этой песне:
  • Аккорды и текст

Страница создана 13.04.2012
http://primanota.ru/extremoduro/necesito-drogas-y-amor-chords.htm
Привет, Гость.
Предлагаем пройти революционный курс по гитаре.
Подарок от PrimaNota.Ru, забирай!