PrimaNota.ru - самый крупный в мире бесплатный архив песенных текстов, аккордов, табулатур и нот


Extremoduro - La Vereda De La Puerta De Atras - аккорды и текст, таба, бас-таба, видео

Регистрация Запомнить меня
Войти через:  Facebook Google Twitter Vk Yandex Mail.ru

Extremoduro - La Vereda De La Puerta De Atras - аккорды и текст, таба, бас-таба, видео

Печатать
Просмотров: 102
La Vereda De La Puerta De Atras
Extremoduro
------------------------------------------------------
------------------------------------------------------
-------------------------------------0-2-2-0-0---0-2--
-----------------------------0---0-2-----------2------
-0-2-3-3-2-2-0-2-------0-2-3---3----------------------
-----------------3-0-3--------------------------------

--------------------------1-0-5--
-0-1-0---0-----------------------
-------2---0---------------------
-------------2-1-0---0-----------
-------------------3---2---------
---------------------------------


     Em
Si no fuera

      D       C
porque hice colocado

     D          Em
el camino de tu espera

      D         C
me habría desconectado

D  Em      D          C
condenado a mirarte desde fuera

    D          C
y dejar que te tocara el sol.

     Em
Y si fuera

   D          C
mi vida una escalera

    D          Em
me la he pasado entera

   D             C
buscando el siguiente escalón

D   Em         D        C
convencido que estás en el tejado

    D               C
esperando a ver si llego yo.

G                   Em                    Bm
Y dejar de lado la vereda de la puerta de atrás

       C
por donde te vi pasar

   G                    Em                         Bm
como una regadera que la hierba hace que vuelva a brotar

        C
y ahora todo es campo ya.

       Em
Sus soldados

    D         C
son flores de madera

      D        Em
y mi ejercito no tiene

   D              C
bandera es sólo un corazón

D  Em      D         C
condenado a vivir entre malezas

   D                 C
sembrando flores de algodón.

        Em
Si me espera

   D          C
la muerte traicionera

    D         Em
y antes de repartirme

    D            C
del todo me veo en un cajón

D      Em          D           C
que me entierren con la picha por fuera

    D                C
pa' que se la coma un ratón.

  G                        Em                Bm
Y muere a todas horas gente dentro de mi televisor

           C
quiero oir alguna canción

    G                       Em                    Bm
que no hable de sandeces y que diga que no sobra el amor

        C
y que empiece en si y no en no.

G                   Em                    Bm
Y dejar de lado la vereda de la puerta de atrás

       C
por donde te vi marchar

  G                   Em                         Bm
como una regadera que la hierba hace que vuelva a brotar

        C
y ahora todo es campo ya.


------------------------------------------------------
-----------1-0------------------------1-0-------------
-0-0-0-0-0-----0-0-0--------0-0-0-0-0-----0-0-0-------
---------------------3-2-2----------------------3-2-3-
------------------------------------------------------
------------------------------------------------------

-----------0--------------------------0---------------
-1-1-1-1-1---3-0-0-0--------1-1-1-1-1---3-0-0-0-------
---------------------2-0-0----------------------2-0-2-
------------------------------------------------------
------------------------------------------------------
------------------------------------------------------


F                      G                 Am
Dices que a veces no comprendes que dice mi voz

                         G
como quieres que esté dentro de tu ombligo

F                         G              Am
si entre los dedos se me escapa volando una flor

                    G
y ella solita va marcando el camino.

F                      G                 Am
Dices que a veces no comprendes que dice mi voz

                      G
como quieres que yo sepa lo que digo

F                         G              Am
si entre los dedos se me escapa volando una flor

                    G
y yo la dejo que me marque el camino.


********************************************

Para aquellos que se les atragante el acorde SIm :

Podemos cambiar la secuencia del estribillo "sol,mim,sim,do"
por la secuencia "sol,lam,mim,do". No suena exactamente igual
pero para salir del paso esta muy lograda!

********************************************
Добавлено: 02.12.2014
Другие материалы по этой песне:

Страница создана 03.04.2012
http://primanota.ru/extremoduro/la-vereda-de-la-puerta-de-atras-chords.htm
Привет, Гость.
Предлагаем пройти революционный курс по гитаре.
Подарок от PrimaNota.Ru, забирай!