PrimaNota.ru - самый крупный в мире бесплатный архив песенных текстов, аккордов, табулатур и нот


Extremo Duro - Standby - таба, видео

Регистрация Запомнить меня
Войти через:  Facebook Google Twitter Vk Yandex Mail.ru

Extremo Duro - Standby - таба, видео

Печатать
Просмотров: 57
StandBy - Extremo Duro (Yo, minoría absoluta).
==============================================

Transcrito por Pablo López (yopablo@lycos.es)


Guitarra I (Acustico)
e||--------------------------|----------------------------|------------| |
B||--------------------------|----------------------------|------------| |
G||-----0--------------------|-------------0--------------|-----------·| |
D||---0---0------0-----------|----------(2)---------------|-----------·| |
A||-2-------0--3-------------|---0-2---3------3-3/5-5-5/7-|-------7-5--| |
E||----------------3---------|-3--------------------------|------------| |


e|--------------------------|----------------------------|------------|
B|--------------------------|----------------------------|------------|
G|-----0--------------------|-------------0--------------|------------|
D|---0---0------0-----------|----------(2)---------------|------------|
A|-2-------0--3-------------|---0-2---3------3-3/5-5-5/7-|-------7-5--|
E|----------------3---------|-3--------------------------|------------|
 |
 | Guitarra II (Acustico)
e|-----3------5-------7-----|-----------10-8-------------|-3-5-6-7-8--|
B|--------------3-------8---|----------------------------|------------|
G|-3/4--4-4/5-----5/7----(4)|----------9-----9-9/11/9-7--|-4-5-6-7-8--|
D|--------------------------|---------------------------9|------------|
A|--------------------------|----------------------------|------------|
E|--------------------------|----------------------------|------------|


e|------------------------------------|----------------------------|
B|------------------------------------|----------------------------|
G|-------0----------------------------|-------------0--------------|
D|----0-----0---------0---------------|----------(2)---------------|
A|-2-----------0---3------------------|---0-2---3------3-3/5-5-5/7-|
E|-----------------------3------------|-3--------------------------|
 |
 |     F        F                         1/2
e|-------15----------14------------12-|-14brbr----3----3-----------|
B|---------15----------15--------12---|---------5----3----1---0----|
G|-14-14b(16)-(16)r14-----(14)r12-----|---------5----4----2---0----|
D|------------------------------------|--------(5)--(5)--(2)-(0)---|
A|------------------------------------|----------------------------|
E|------------------------------------|----------------------------|


e|------------|
B|------------|
G|------------|
D|------------|
A|-------7-5--|
E|------------|
 |
 |
e|-----3-2-3--|  (2* Se corresponde con
B|-3-3--------|  la entrada de la
G|------------|  guitarra I en el Verso
D|------------|  I que se describe a
A|--------(2*)|  continuación)
E|------------|


[Verso I]
Guitarra I (Acustico)

e||--------------------------|----------------------------|------------|
|
B||--------------------------|----------------------------|------------|
|
G||-----0--------------------|-------------0--------------|-----------·|
|
D||---0---0------0-----------|----------(2)---------------|-----------·|
|
A||-2-------0--3-------------|---0-2---3------3-3/5-5-5/7-|-------7-5--|
|
E||----------------3---------|-3--------------------------|------------|
|
   Viene mirando una estrella              siempre en estado de espera.
   Bebe a la noche ... ginebra             para encontrase con ella.


e||-----------------------------------------------------------||
B||-----------------------------------------------------------||
G||----------------------------------------------------------·||
D||----------------------------------------------------------·||
A||--2/3--3--3--3--3/5--5--5--5--5/7--7--7--7--5--5--5--5--5--||
E||-----------------------------------------------------------||
    Sueña con su calabera,           viene un perro y se la lleva,
    y aleja la pesadilla             dejando en un agujero,


e|-----------------------------------------------------------------|
B|-----------------------------------------------------------------|
G|--------------------------------------------------------------5--|
D|--------------------------------------------------------------5--|
A|--2/3--3--3--3--3/5--5--5--5--5/7--7--7--7--5--5--5--5-5--2/3-3--|
E|-----------------------------------------------------------------|
 |
 | Guitarra II (Acustico)
e|-------12------------14------------15------------17--------------|
B|-----------------------------------------------------------------|
G|-11/12---------12/14---------14/16---------16/17----------8/9----|
D|-----------------------------------------------------------------|
A|-----------------------------------------------------------------|
E|-----------------------------------------------------------------|
    unas flores amarillas            p'acordarse de su pelo.


[ESTRIBILLO I]
Guitarra III y IV (Eléctricas)
    G       D     G                 C       D     Em
e||-3-3-3-3-2-2-2-3-3-3-3-3-3-2-0---0-0-0-0-3-3-3-3-3-3-3-3-|
B||-3-3-3-3-3-3-3-3-3-3-3-3-3-3-3-3-1-1-1-1-2-2-2-5-5-5-5-5-|
G||-0-0-0-0-2-2-2-0-0-0-0-0-------0-0-0-0-0-3-3-3-4-4-4-4-4-|
D||---------------------------------------------------------|
A||---------------------------------------------------------|
E||---------------------------------------------------------|
    Sueña que sueña con ella            y si en el infierno espera
    quiero fundirme en tu fuego         como si fuese de cera.

 ___________________________
 |1.            |2.
 |              |   Em D
e|-3-2-0---5-3-||----------|
B|-------3-----||----------|
G|------------·||---9--7---|
D|------------·||---9--7---|
A|-------------||---7--5---|
E|-------------||----------|

			  
_______________________________________________
                          |1.                 |2.
e||-----------------------|------------------||------------------------|
|
B||------10p8-------12p10-|-------13p12--10--||-------13-12h13p12--15--|
|
G||----9---------11-------|----12-----------·||----12-----------------·|
|
D||-10--------12----------|-14--------------·||-14--------------------·|
|
A||-----------------------|------------------||------------------------|
|
E||-----------------------|------------------||------------------------|
|
|PM|...|     |.....|        |.....|             |.....|
|
e||-------5p3--------7p5--|--------8p7----5--||--------8---7h8p7---10--|
|
B||----5----------7-------|-----8------------||-----8------------------|
|
G||--5---------7----------|--9--------------·||--9--------------------·|
|
D||-----------------------|-----------------·||-----------------------·|
|
A||-----------------------|------------------||------------------------|
|
E||-----------------------|------------------||------------------------|
|
 PM|...|      |....|        |....|              |....|


 ________________________________
 |3.
e|-------------------------------|
B|-------13-12h13p12--10-8-------|
G|----12-------------------------|
D|-14----------------------------|
A|-------------------------------|
E|-------------------------------|
|PM|.....|
|                       C
e|--------8---7h8p7---5--3-3-3-3-|
B|-----8-------------------------|
G|--9--------------------5-5-5-5-|
D|-----------------------5-5-5-5-|
A|-----------------------3-3-3-3-|
E|-------------------------------|
 PM|....|

     F
e|---------15---------------------|
B|-12-----------------------------|
G|-14b(16)--r(15)b(16)r14p12------|
D|--------------------------14-12-|
A|--------------------------------|
E|--------------------------------|
Guitarra I (Acustico)


e||--------------------------|----------------------------|---------||
B||--------------------------|----------------------------|---------||
G||-----0--------------------|-------------0--------------|--------·||
D||---0---0------0-----------|----------(2)---------------|--------·||
A||-2-------0--3-------------|---0-2---3------3-3/5-5-5/7-|----7-5--||
E||----------------3---------|-3--------------------------|---------||


[VERSO II]
e|-------------------------|-------------------------------|------------
-|
B|-------------------------|-------------------------------|------------
-|
G|-----0-------------------|-----------------0-------------|------------
-|
D|---0---0-----0-----------|--------------(2)--------------|------------
-|
A|-2-------0-3-------------|---0-2-------3-----3-3/5-5-5/7-|---------7-5
-|
E|---------------3---------|-3-----------------------------|------------
-|
 |
 | Guitarra II (Acustico)
e|-3-----3-2-----3-3-3-----|---------3p2-0-----0-2-----2-3-|---------7-5
-|
B|---3-------3---------3---|-------3-------1-------3-------|-------3----
-|
G|-----0-------2---------0-|-2-2/4-----------0-------2-----|-2-2/4---7-5
-|
D|-------------------------|-------------------------------|------------
-|
A|-------------------------|-------------------------------|------------
-|
E|-------------------------|-------------------------------|------------
-|
     Y antes de hacer las maletas              y pasar la vida entre 
andenes


e|-------------------------|-------------------------------|------------
---|
B|-------------------------|-------------------------------|------------
---|
G|-----0-------------------|-----------------0-------------|------------
---|
D|---0---0-----0-----------|--------------(2)--------------|------------
---|
A|-2-------0-3-------------|---0-2-------3-----3-3/5-5-5/7-|---------7-5
---|
E|---------------3---------|-3-----------------------------|------------
---|
 |
 |
e|-3-----3-2-----3-3-3-----|---------3p2-0-----0-2-----2-3-|------------
---|
B|---3-------3---------3---|-------3-------1-------3-------|-------3----
---|
G|-0---0-------2---------0-|-2-2/4-----------0-------2-----|-2-2/4---4/2
-0-|
D|-------------------------|-------------------------------|------------
---|
A|-------------------------|-------------------------------|------------
---|
E|-------------------------|-------------------------------|------------
---|
      Deja pasar a los ratones                 para tener quien la 
espere


e||-----------------------------------------------------------||
B||-----------------------------------------------------------||
G||----------------------------------------------------------·||
D||----------------------------------------------------------·||
A||--2/3--3--3--3--3/5--5--5--5--5/7--7--7--7--5--5--5--5--5--||
E||-----------------------------------------------------------||
        Sueña con su melena         y viene el viento y se la lleva
    y desde entonces su cabeza      solo quiere alzar el vuelo,


e|----------------------------------------------------------------------
------|
B|----------------------------------------------------------------------
------|
G|--------------------------------------------------------------5-------
---(5)|
D|--------------------------------------------------------------5-------
---(5)|
A|--2/3--3--3--3--3/5--5--5--5--5/7--7--7--7--5--5--5--5-5--2/3-3-------
---(3)|
E|----------------------------------------------------------------------
------|
 |
 |
e|-------12------------14------------15------------17-----------8--10--8
--7-5-|
B|----------------------------------------------------------------------
------|
G|-11/12---------12/14---------14/16---------16/17----------8/9---------
------|
D|----------------------------------------------------------------------
------|
A|----------------------------------------------------------------------
------|
E|----------------------------------------------------------------------
------|
      bebe rubia la cerveza          p'acordarse de su pelo



[ESTRIBILLO II]
Guitarra III y IV (Eléctricas)
   G       D     G                 C       D     Em
e||-3-3-3-3-2-2-2-3-3-3-3-3-3-2-0---0-0-0-0-3-3-3-3-3-3-3-3-|
B||-3-3-3-3-3-3-3-3-3-3-3-3-3-3-3-3-1-1-1-1-2-2-2-5-5-5-5-5-|
G||-0-0-0-0-2-2-2-0-0-0-0-0-------0-0-0-0-0-3-3-3-4-4-4-4-4-|
D||---------------------------------------------------------|
A||---------------------------------------------------------|
E||---------------------------------------------------------|
    Sueña que sueña la estrella         siempre en estado de espera
    vuelve a coger la botella           y pasa las noches en vela.

 ___________________________
 |1.            |2.
 |              |   Em D
e|-3-2-0---5-3-||----------|
B|-------3-----||----------|
G|------------·||---9--7---|
D|------------·||---9--7---|
A|-------------||---7--5---|
E|-------------||----------|

                          
________________________________________________
                          |1.                       |2.
e||-----------------------|------------------------||-------------------
||
B||------10p8-------12p10-|-------13-12h13p12--10--||-------13p12---15--
||
G||----9---------11-------|----12-----------------·||----12------------·
||
D||-10--------12----------|-14--------------------·||-14---------------·
||
A||-----------------------|------------------------||-------------------
||
E||-----------------------|------------------------||-------------------
||
|PM|...|    |.....|        |.....|                   |.....|
|
e|-------5p3--------7p5---|--------8--7h8p7-----5--||--------8p7----10--
||
B|----5----------7--------|-----8------------------||-----8-------------
||
G|--5---------7-----------|--9--------------------·||--9---------------·
||
D|------------------------|-----------------------·||------------------·
||
A|------------------------|------------------------||-------------------
||
E|------------------------|------------------------||-------------------
||
 PM|...|     |....|        |....|                     |....|

 ________________________________
 | 3.
e|-------------------------------|
B|-------13p12----10----8--------|
G|----12-------------------------|
D|-14----------------------------|
A|-------------------------------|
E|-------------------------------|
|PM|.....|
|                        C
e|--------8p7-------5----3-3-3-3-|
B|-----8-------------------------|
G|--9--------------------5-5-5-5-|
A|-----------------------5-5-5-5-|
D|-----------------------3-3-3-3-|
E|-------------------------------|
 PM|....|


e|-----------------------------|
B|-12-------12------15--12-----|
G|-14b16----14b16-------14b16--|
D|-----------------------------|
A|-----------------------------|
E|-----------------------------|

[ESTRIBILLO III]
Guitarra III y IV (Eléctricas)
   G       D     G
e|-3-3-3-3-2-2-2-3-3-3-3-3-3-2-0---|
B|-3-3-3-3-3-3-3-3-3-3-3-3-3-3-3-3-|
G|-0-0-0-0-2-2-2-0-0-0-0-0-------0-|
D|---------------------------------|
A|---------------------------------|
E|---------------------------------|
 |
 | Guitarra V y VI (Eléctricas)
e|------------------------15p14h15-|
B|---------------------15-15p13h15-|
G|---------------------12-------16-|
D|---------------------------------|
A|---------------------------------|
E|---------------------------------|
    Sueña que sueña con ella


   C       D     Em
e|-0-0-0-0-3-3-3-3-3-3-3-3-|-3-2-0---5-3-|
B|-1-1-1-1-2-2-2-5-5-5-5-5-|-------3-----|
G|-0-0-0-0-3-3-3-4-4-4-4-4-|-------------|
D|-------------------------|-------------|
A|-------------------------|-------------|
E|-------------------------|-------------|
 |
 |
e|-------14-15b(17)r15p14-12---------------------|
B|----------15b(17)r15-15-13-15-15b(17)r15-13-12-|
G|---------------------------16-16b(17)r16-14-12-|
D|-----------------------------------------------|
A|-----------------------------------------------|
E|-----------------------------------------------|
   y si en el infierno espera,





Guitarra III y IV continúan como en los estribillos anteriores hasta
el final del solo
   G           D          G ~~~~~~~~~~~~~~~~~~~           C      D
e|------------------------10-----10-----10---10--------------------|
B|------------------------12-----12-----12---12--------------------|
G|-----------------------(12)---(12)---(12)-(12)-9p7h9----11----12-|
D|-----------------------------------------------------------------|
A|-----------------------------------------------------------------|
E|-----------------------------------------------------------------|
    quiero fundirme en tu fuego                          como si fuese

      Em
e|---------------------|
B|------10h12h13-10h12-|
G|------11h12h14-11h12-|
D|---------------------|
A|---------------------|
E|---------------------|
    de cera.

   G           D          D
                          F          F       1/2     F
e|----------------15----17b(19)--(17)b19-------------------------|
B|-------------15----15--------------------18b(19)-18b(20)~~~~~--|
G|---------------------------------------------------------------|
D|---------------------------------------------------------------|
A|---------------------------------------------------------------|
E|---------------------------------------------------------------|
    Sueña que sueña la estrella ...


    C         D       Em
e|-----------------------------------------------|----------------------
---|
B|-18p15-18p15----15-----------------------------|----------------------
---|
G|-------------17----17p15-17p15----15-----------|----14-16-17-19-19b(21
)--|
D|-------------------------------17----17p15h17--|-17-------------------
---|
A|-----------------------------------------------|----------------------
---|
E|-----------------------------------------------|----------------------
---|
   siempre en estado de espera

solo                 F
e|--------------15-17b(19)----19p17----------19p17---------|
B|-----------15--------------------20p18h20-------20p18h20-|
G|-19--17p16-----------------------------------------------|
D|---------------------------------------------------------|
A|---------------------------------------------------------|
E|---------------------------------------------------------|
    vuelve a coger la botella

                                          F            final del solo
e|-19p17----------19p17---------|-17-19-19b(20)r19p17-------------------
-|
B|------20p18h20-------20p18h20-|---------------------20p19p17----------
-|
G|------------------------------|------------------------------19p17\\--
-|
D|------------------------------|-----------------------------------***-
-|
A|------------------------------|---------------------------------------
-|
E|------------------------------|---------------------------------------
-|
       y pasas las noches en vela.

*** En este punto comienza la parte final a dos guitarras que he puesto
    a continuación

			  
________________________________________________
2 guitarras               |1.                       |2.
e||-----------------------|-------12-10h12p10---8--||-------12p10---15--
||
B||------10p8-------12p10-|-------13-12h13p12--10--||-------13p12---15--
||
G||----9---------11-------|----12-----------------·||----12------------·
||
D||-10--------12----------|-14--------------------·||-14---------------·
||
A||-----------------------|------------------------||-------------------
||
E||-----------------------|------------------------||-------------------
||
|PM|...|    |.....|        |.....|                    |.....|
Siempre en estado de espera        siempre en estado de espera

 _________________________________
 |3.
e|-------12-10h12p10----8---7----|
B|-------13-12h13p12---10---8----|
G|----12-------------------------|
D|-14----------------------------|
A|-------------------------------|
E|-------------------------------|
PM|.....|
      siempre en estado de espera ...


Final:
(Guitarra I, acustico)

               G
e|-------------3----|
B|-0--3--0-----3----|
G|----------2--0----|
D|-------------0----|
A|-------------2----|
E|-------------3----|


SIMBOLOS UTILIZADOS
-------------------

p: pull-off (ligado descendente)
h: hammer (ligado ascendente)
/: Slide hasta la nota que prosigue.
\\:  Slide descendente hasta el comienzo de los trastes.
(3): Ghost note (Nota que si no la tocas, no pasa na).
~: Vibrato
PM |....|: Palm Mute
12b(14): Bend (Hasta la nota que viene despues entre parentesis).
12b(14)r12: Bend & release (Igual que el anterior pero solatando luego).
(14)r12: Prebend.

||                                ||
||  -Comienzo de la repeticion   ·||  - Repetir desde el comienzo
||                               ·||    de la repeticion
||                                ||
 ______________
 |x              -> Final de la repeticion numero x



Transcrito por Pablo López
Para cualquier corrección, consulta o pa simple palike
mi correo es yopablo@lycos.es.
Ala, a dejarse los dedos.


     
Добавлено: 22.06.2013
Другие материалы по этой песне:
  • Аккорды и текст

Страница создана 22.06.2013
http://primanota.ru/extremo-duro/standby-chords.htm
Привет, Гость.
Предлагаем пройти революционный курс по гитаре.
Подарок от PrimaNota.Ru, забирай!