PrimaNota.ru - самый крупный в мире бесплатный архив песенных текстов, аккордов, табулатур и нот


Extol - Reflection of a broken soul - таба, видео

Регистрация Запомнить меня
Войти через:  Facebook Google Twitter Vk Yandex Mail.ru

Extol - Reflection of a broken soul - таба, видео

Печатать
Просмотров: 216
Уроки эстрадного вокала в Санкт-Петербурге


Reflections of a broken Soul
by EXTOL (Album: Synergy)
Label: Century Media Records


One of the greatest pieces. 7:31 minutes never seemed so short.
Absolutely unbelievable  

by peteR
peter@silendril.com
www.silendril.com

A little bit of both guitars...
With a little help of power chords...
Comments 

About the tuning... well I tried it with standard E, but I have this strange

feeling that dropD must be in there somewhere... or worse 
seriously, it is dropD - so I just wrote the letters instead of chords, they should
be correct and you can pick whatever finger position you like ;-)=


************************************************



Intro *******************************************00:00
10/4
(8/4 + 2/4)


E                       D   F   E
----------------------
----------------------
-----1-------1-----3-2
-2-3---3-2-0---3-0----
----------------------
----------------------


Beat_A ******************************************************00:43


The beat for this part: 6/8 - 6/8 - 5/8 - 5/8
(or: try counting slow 4/4 and then 5/8)

-5-5-5-5-5-5-3-3-3-3-3-3-
-------------------------
-4-4-4-2-2-2-2-2-2-2-2-2-
-------------------------
-------------------------
-------------------------



--------------------------
--------------------------
-5-4-2-0-2-0(2)0----------
---------------------3-2-0
--------------------------
--------------------------


Both guitars together



6/8
B (=H) - F# - F
(like this: BBB-F#F#F#-FFFFFF)

5/8
A - E - F - Bb
(AAA-E---F-BbBbBb)



Guitars only - before it really starts:





Beat_B ******************************************************01:00
a regular 4/4 - don't worry, the guitars are behind a little
(or it is aVERY strange beat)

F - G - E
F - G - E

F - E - D#
F - E - D#

(+repeat)

Beat_C ******************************************************01:23

3 x 8/8
1 x 9/8


D - F - G - A - Bb - A - F  --- G#-Bb-F-G#

D - A# - C - A - A# - A - G --- G-D#

D - F - G - A - Bb - A - F  --- G#-Bb-F-G#

(9/8)
D - A# - C - A - A# - A - G --- C-D#-A-A#-C





I fooled myself again
Trusting an illusion
Of what I thought to be
Never ceasing love
I burned myself again
Leaving scars that never heal
Becoming cynical
To this thing called love  --- D#-D



Git1

----------------------
-------------------3-4
-------3-2---0--------
-(0)-3-----3-----0----
---------------3------
----------------------


Git2

-------------------------
-------3-1--------------1
-(0)-0-----2-3---0-3(3)--
-------------------------
-------------------------
-------------------------


Beat_D ************************************************2:00
4/4

G - D - Bb

(actually the Bb here is:

----
----
----
-7-8
-8-8
-6-6

...if i only knew the name for that cord )


G# - D# - F
(with the same F- like the Bb above)


Look into my mind
Fragments of what I desired
In this state I cry
Father please won't you show me


Repeat Beat_A ************************************************2:18


Show me how
To stop it now
Cleanse my mind
Help me find
Love

Repeat Beat_B ******************************************************03:00



My soul is an open wound
Filled with salt of sadness
Was this my destiny
To be left alone
I nurse my misery
Leave no room for anyone
Still I am cynical
To this thing called love



Repeat Beat_D with Vocals********************************************03:24

Repeat Beat_A with Vocals********************************************03:41


Repeat Intro ********************************************************04:00

A pale reflection
Of a broken soul
Slips through these eyes
Full of tears
Emotional blackout


Beat E **************************************************************04:20
4/4

G - F - G

during the last G the second guitar does:

----------------
----------------
-0-0-0-0-1-3-1-0
----------------
----------------
----------------




I cannot trust my own feelings
My sorrow eats me up inside



Repeat Intro ********************************************************04:37


Beat_F ********************************************************05:00

(Tempo Change)

4/4
(with that strange break inbetween with an accent on 2 and 4, but just go on

counting)
(second break: accent 2, 3, 4)

A - D# - F

A - G - F
()

Learn from mistakes
See what it takes
My feelings fail
Your love remains





Beat_G ********************************************************05:22

8/4 - 7/4 (Accent 7 ) - 7/8

Alternatively for the last 7/8 count slow 5 and then fast 5







D# - F- F# - D
(8/4)


---------------6-5
-----------6-3----
-------2-3--------
-35-3------------
------------------
------------------


D#



REAPEAT 2x

2 guitars on top:

git1
---------------6-5
-----------6-3----
-------2-3--------
-35-3------------
------------------
------------------

git2
---------------10-9
-------------------
----------10-7-----
-8-7-8-10----------
-------------------
-------------------







Beat_H ********************************************************05:48
4/4

Solo

git1
----------6-5-10-8---------8-------11----11-13-11-10---------
-------------------11-8-10---10-13----13-------------11-10---
--------7--------------------------------------------------10
-8-7-7------------------------------------------------------
-------------------------------------------------------------
-------------------------------------------------------------

----------------------
-------31------------
-(0)-3-----23-------5
---------------35-5--
----------------------
----------------------


git2
-----------1---6-5-------------------------------------------
-------------3------8-------8--------------------------------
------2-3-------------7--8----8------------------------------
-5-3--------------------------10-13-10-13-10--8--8--8--7---
------------------------------------------------------------8
-------------------------------------------------------------

----------------------
-------------------34
-------32------------
-(0)-3-----35--------
---------------35----
----------------------




with a 6/4 beat that ends Beat_H


Repeat Beat_D ************************************************05:57
4/4

Look into my mind
Fragments of what I desired
In this state I cry
Father please won't you show me


Repeat Beat_A ************************************************06:15


Show me how
To stop it now
Cleanse my mind
Help me find
Love


Beat_I *****************************************06:33
6/4

that cool dirty standalone guitar

----------------------------10-10-10-10-10-10
-8-8-8-8-8-8-10-10-10-8-8-8--7--7--8--8--7--7
-7-7-7-7-7-7--7--7--7-7-7-7--7--7--7--7--7--7
---------------------------------------------
---------------------------------------------
---------------------------------------------


-10-10-10-10-10-10--8--8--8--8
--8--8--8--8--8--8--8--8--8--8
--9--9--9--9--9--9--9-10-12-10
-10-10-10-10-10-10-10-10-10-10
------------------------------
------------------------------


--8--8--8--8--8--8--8--8--8--8--8--8--8--8--8--8--8--8
--8--8-11-11--9--9--8--8--8--8--8--8--8--8--8--8--8--8
-10-10-10-10-10-10-10-10-10-10-10-10-10-10-10-10-10-10
------------------------------------------------------
------------------------------------------------------
------------------------------------------------------


Beat J*****************************************06:59
6/8

heavy part, one guitar plays beat_I, the other one goes:

G - E - F - C# - (D#)

final chord: G



ROCK ON, MY FAVOURITE BAND 

Добавлено: 16.11.2013
Другие материалы по этой песне:
  • Аккорды и текст

Страница создана 16.11.2013
http://primanota.ru/extol/reflection-of-a-broken-soul-chords.htm
Привет, Гость.
Предлагаем пройти революционный курс по гитаре.
Подарок от PrimaNota.Ru, забирай!