PrimaNota.ru - самый крупный в мире бесплатный архив песенных текстов, аккордов, табулатур и нот


Explosions In The Sky - A Poor Mans Memory - таба, видео

Регистрация Запомнить меня
Войти через:  Facebook Google Twitter Vk Yandex Mail.ru

Explosions In The Sky - A Poor Mans Memory - таба, видео

Печатать
Просмотров: 116
-------------------------------------------------------------------------------
                             A Poor Man's Memory - Explosions In The Sky
-------------------------------------------------------------------------------
Tabbed by:Chris Vinkler/mogwai777
Email:thecure8989@yahoo.com

Well, there aren't any Explosions In The Sky Tabs on this website, so I put a
song on here for them.
Alright, I have the riffs for guitar one first, and I'll put the riffs for guitar
2 second, ok? This is a pretty simple song, enjoy.
Tuning:Standard
Riff One: 0:14
e|-------------------------------------------------------------------------|
B|-------------------------------------------------------------------------|
G|---12----11--9----11--12----11--9----11--12------------------------------|
D|-------------------------------------------------------------------------|
A|-------------------------------------------------------------------------|
E|-------------------------------------------------------------------------|
Riff Two: 2:00
e|-------------------------------------------------------------------------|
B|-------------------------------------------------------------------------|
G|---12--11--9--11--12--11----12-11--9--11--12--11-------------------------|
D|-------------------------------------------------------------------------|
A|-------------------------------------------------------------------------|
E|-------------------------------------------------------------------------|
Repeat Riff One at 2:57 and stop at 3:08, Then restart Riff One at 3:36 only use
a vibrato for every note played. Then stop at 4:37. Now for guitar 2.

Guitar 2: Riff one, play along with guitar 1, starting at 0:42, stop at 1:38. Start
again at 3:00, stop at 3:10.
e|---15----14--12----11--12----11--9----11--12-----------------------------|
B|-------------------------------------------------------------------------|
G|-------------------------------------------------------------------------|
D|-------------------------------------------------------------------------|
A|-------------------------------------------------------------------------|
E|-------------------------------------------------------------------------|
Riff two: 4:26
e|-------------------------------------------------------------------------|
B|-------------------------------------------------------------------------|
G|---11-11-11-12-9---------------------------------------------------------|
D|---9--9--9-------11-12---------------------------------------------------|
A|-------------------------------------------------------------------------|
E|-------------------------------------------------------------------------|
Riff three: 5:08
e|---14-14-14-15-12--------------------------------------------------------|
B|---12-12-12-------14-15--------------------------------------------------|
G|-------------------------------------------------------------------------|
D|-------------------------------------------------------------------------|
A|-------------------------------------------------------------------------|
E|-------------------------------------------------------------------------|
Do Riff two again at 5:18 until the end of the song.

Well, that's it, sorry I don't have guitar ones riff in the second part of the song,
and if you've heard the song you can tell it's split into two parts. But, those are
the basics of the song. I hope you enjoyed.
| /  slide up
| \  slide down
| h  hammer-on
| p  pull-off
| ~  vibrato
| +  harmonic
| x  Mute note
===============================================================================
Добавлено: 18.04.2012
Другие материалы по этой песне:

Страница создана 02.04.2012
http://primanota.ru/explosions-in-the-sky/a-poor-mans-memory-chords.htm
Привет, Гость.
Предлагаем пройти революционный курс по гитаре.
Подарок от PrimaNota.Ru, забирай!