PrimaNota.ru - самый крупный в мире бесплатный архив песенных текстов, аккордов, табулатур и нот


The Exploration - I Guess Im Leaving - бас-таба, видео

Регистрация Запомнить меня
Войти через:  Facebook Google Twitter Vk Yandex Mail.ru

The Exploration - I Guess Im Leaving - бас-таба, видео

Печатать
Просмотров: 27
 Really sad and underrated song by Emo/Math Rock band The Exploration

Intro 0.01 - 0.41
G|----------------------------------------------------------------------------------|
D|-3-3-1/3---------------3-3-1/3----------------------------------------------------|
A|------------4-4-4-4---------------4-4-4-------------------------------------------|
E|----------------------------------------------------------------------------------|

0.41 - 1.19
G|---------------------------------------------------------------------------|
D|---------------------------------------------------------------------------|
A|-8-8-8-8-8-8-8-8-4-4-4-4-4-4-4-4-8-8-8-8-8-8-8h10p8\4-4-4-4-4-4-4-4--------|
E|---------------------------------------------------------------------------|

1.20 - 1.38
G|--------------------------------------------|
D|-3-3--3-3--5-5--3-3--3-3-----3-3--3-3--5-5--|
A|--------------------------4-----------------|
E|--------------------------------------------|

1.39 - 2.35
G|------------------|
D|---------------6--|
A|-/4-4-4--6-6-8----|
E|------------------|

2.36 - 3.33
G|-------------------------------------------------------------------------------------|
D|-------------------------------------------------------------------------------------|
A|-4-4-4----6-6-6----------------------------------------------------------------------|
E|-------------------------------------------------------------------------------------|

3.34 - 4.54
G|---------------------------------------------------------------------------|
D|-3-3----3-3----------------------------------------------------------------|
A|-----4------4--------------------------------------------------------------|
E|---------------------------------------------------------------------------|


| /  slide up
| \  slide down
| h  hammer-on
| p  pull-off
| ~  vibrato
| +  harmonic
| x  Mute note
===============================================================================
Добавлено: 31.12.2015
Другие материалы по этой песне:
  • Аккорды и текст

Страница создана 31.12.2015
http://primanota.ru/exploration/i-guess-im-leaving-chords.htm
Привет, Гость.
Предлагаем пройти революционный курс по гитаре.
Подарок от PrimaNota.Ru, забирай!