PrimaNota.ru - самый крупный в мире бесплатный архив песенных текстов, аккордов, табулатур и нот


Exploited - I Never Changed - аккорды и текст, таба, видео

Регистрация Запомнить меня
Войти через:  Facebook Google Twitter Vk Yandex Mail.ru

Exploited - I Never Changed - аккорды и текст, таба, видео

Печатать
Просмотров: 230
Уроки эстрадного вокала в Санкт-Петербурге
Авторы: Willie Buchan, Wattie Buchan

I Never Changed
Exploited
Riff 1:		---------------------------------------
---------------------------------------
------------------4-4--4---------------
--7-7--5--2-2--2--4-4--4--5-5--5-------
--7-7--5--2-2--2--2-2--2--5-5--5-------
--5-5--3--0-0--0----------3-3--3-------
 
Riff 2:		---------------------------------------
---------------------------------------
--4-4--4--7-7--7--9-9--9---------------
--4-4--4--7-7--7--9-9--9--5--7---------
--2-2--2--5-5--5--7-7--7--5--7---------
--------------------------3--5---------

Solo:		--7-12-7---7-12-7--------777-121212----
---------8--------8--888-888-8-8-8-----
---------------------------------------
---------------------------------------
---------------------------------------
---------------------------------------

Intro:		Riff 1 } 4 times

Riff 1
I always was there for you
You're never fucking there for me
That's the way it seems to be
And the way it's always been
Riff 2
I never changed
I never changed
I never changed
Never never never never never never changed
Riff 1
I was always there for you
Always first in the queue
I used to do anything
And everything just for you
Riff 2
I never changed
I never changed
I never changed
Never never never never never never changed
Riff 1 - slow, then Solo
Riff 1
I'm still fucking here for you
No matter what you say or do
Cos that's the way i've always been
And you know that's fucking true
Riff 2
I never changed
I never changed
I never changed
Never never never never never never changed
Добавлено: 27.10.2013
Другие материалы по этой песне:
  • Аккорды и текст

Страница создана 03.07.2012
http://primanota.ru/exploited/i-never-changed-chords.htm
Привет, Гость.
Предлагаем пройти революционный курс по гитаре.
Подарок от PrimaNota.Ru, забирай!