PrimaNota.ru - самый крупный в мире бесплатный архив песенных текстов, аккордов, табулатур и нот


Expanding Man - Download - таба, бас-таба, видео

Регистрация Запомнить меня
Войти через:  Facebook Google Twitter Vk Yandex Mail.ru

Expanding Man - Download - таба, бас-таба, видео

Печатать
Просмотров: 108
-----------------------------------------------------------------------------
                  Expanding Man - Download   (GUITAR)
                       
-----------------------------------------------------------------------------
Tabbed by: Scotto10

Tuning: Standard

Info on the band: 

http://www.myspace.com/expandingman

http://en.wikipedia.org/wiki/Expanding_Man

http://www.youtube.com/watch?v=7s48Z2G_3s0

=============================================================================


Guitar 1



     W                   E  S  E  S S S S S S S  Q     
E||-------------------|-------------------------------|
B||-------------------|-------------------------------|
G||-------------------|--5--5s-3--0-------------------|
D||-------------------|--5--5s-3--0-------------------|
A||-------------------|--3--3s-1----3-1-0-3-1-0-/5----|
D||-------------------|-------------3-1-0-3-1-0-/5----|


  E  S  E  S S S S S S S  Q       E  S  E  S S S S S S S  Q     
-------------------------------|-------------------------------|
-------------------------------|-------------------------------|
--5--5s-3--0-------------------|--5--5s-3--0-------------------|
--5--5s-3--0-------------------|--5--5s-3--0-------------------|
--3--3s-1----3-1-0-3-1-0-/5----|--3--3s-1----3-1-0-3-1-0-/5----|
-------------3-1-0-3-1-0-/5----|-------------3-1-0-3-1-0-/5----|


  E  S  E  S S S S S S S  Q       S  H.           E.     H        E  S S Q     
-------------------------------|----------------------|-----------------------|
-------------------------------|----------------------|-----------------------|
--5--5s-3--0-------------------|----------------------|--------------x-x------|
--5--5s-3--0-------------------|----------------------|--------------x-x-3----|
--3--3s-1----3-1-0-3-1-0-/5----|--1s-3------------L---|--L--------L--x-x-3----|
-------------3-1-0-3-1-0-/5----|----------------------|-----------------------|


  W                   W                   E  H        Q.      
-------------------|-------------------|---------------------|
-------------------|-------------------|---------------------|
-------------------|-------------------|---------------------|
--1----------------|--3----------------|--L--5--------L------|
--1----------------|--3----------------|--L--3--------L------|
-------------------|-------------------|---------------------|


  H        E  S S Q       W                     W                 
-----------------------|-------------------|---------------------|
-----------------------|-------------------|---------------------|
--------------x-x------|-------------------|---------------------|
--L-----------x-x-3----|--1----------------|--3g5----------------|
--L-----------x-x-3----|--1----------------|--3g3----------------|
-----------------------|-------------------|---------------------|


  H        H           H        E  S S Q       W                 
--------------------|-----------------------|-------------------|
--------------------|-----------------------|-------------------|
--------------------|--------------x-x------|-------------------|
--L-----------------|--------------x-x-3----|--1----------------|
--L-----------------|--L--------L--x-x-3----|--1----------------|
--------------------|-----------------------|-------------------|


  W                   W                   H.           Q     
-------------------|-------------------|--------------------|
-------------------|-------------------|--------------------|
-------------------|-------------------|--------------------|
--3----------------|-------------------|---------------3----|
--3----------------|--L----------------|--L------------3----|
-------------------|-------------------|--------------------|


  W                   W                   H        Q.     E   
-------------------|-------------------|---------------------|
-------------------|-------------------|---------------------|
-------------------|-------------------|------------------5--|
--1----------------|--3----------------|--5--------L------5--|
--1----------------|--3----------------|--5--------L------3--|
-------------------|-------------------|--5--------L---------|


  Q.     H        E     W                   W                 
---------------------|-------------------|-------------------|
---------------------|-------------------|-------------------|
--L------3--------L--|-------------------|-------------------|
--L------3--------L--|--1----------------|--3----------------|
--L------1--------L--|--1----------------|--3----------------|
---------------------|--1----------------|--3----------------|


  H        Q.     E     Q.     H        E     W                 
---------------------|---------------------|-------------------|
---------------------|---------------------|-------------------|
------------------5--|--L------3--------L--|-------------------|
--5--------L------5--|--L------3--------L--|--1----------------|
--5--------L------3--|--L------1--------L--|--1----------------|
--5--------L---------|---------------------|--1----------------|


  W                   E  S  E  S S S S S S S  Q     
-------------------|-------------------------------|
-------------------|-------------------------------|
-------------------|--5--5s-3--0-------------------|
--3----------------|--5--5s-3--0-------------------|
--3----------------|--3--3s-1----3-1-0-3-1-0-/5----|
--3----------------|-------------3-1-0-3-1-0-/5----|


  E  S  E  S S S S S S S  Q       E  S  E  S S S S S S S  Q     
-------------------------------|-------------------------------|
-------------------------------|-------------------------------|
--5--5s-3--0-------------------|--5--5s-3--0-------------------|
--5--5s-3--0-------------------|--5--5s-3--0-------------------|
--3--3s-1----3-1-0-3-1-0-/5----|--3--3s-1----3-1-0-3-1-0-/5----|
-------------3-1-0-3-1-0-/5----|-------------3-1-0-3-1-0-/5----|


  E  S  E  S S S S S S S  Q       S  H.           E.     H        E  S S Q     
-------------------------------|----------------------|-----------------------|
-------------------------------|----------------------|-----------------------|
--5--5s-3--0-------------------|----------------------|--------------x-x------|
--5--5s-3--0-------------------|----------------------|--------------x-x-3----|
--3--3s-1----3-1-0-3-1-0-/5----|--1s-3------------L---|--L--------L--x-x-3----|
-------------3-1-0-3-1-0-/5----|----------------------|-----------------------|


  W                   W                   E  H        Q.      
-------------------|-------------------|---------------------|
-------------------|-------------------|---------------------|
-------------------|-------------------|---------------------|
--1----------------|--3----------------|--L--5--------L------|
--1----------------|--3----------------|--L--3--------L------|
-------------------|-------------------|---------------------|


  H        E  S S Q       W                     W                 
-----------------------|-------------------|---------------------|
-----------------------|-------------------|---------------------|
--------------x-x------|-------------------|---------------------|
--L-----------x-x-3----|--1----------------|--3g5----------------|
--L-----------x-x-3----|--1----------------|--3g3----------------|
-----------------------|-------------------|---------------------|


  H        H           H        E  S S Q       W                 
--------------------|-----------------------|-------------------|
--------------------|-----------------------|-------------------|
--------------------|--------------x-x------|-------------------|
--L-----------------|--------------x-x-3----|--1----------------|
--L-----------------|--L--------L--x-x-3----|--1----------------|
--------------------|-----------------------|-------------------|


  W                   W                   H.           Q     
-------------------|-------------------|--------------------|
-------------------|-------------------|--------------------|
-------------------|-------------------|--------------------|
--3----------------|-------------------|---------------3----|
--3----------------|--L----------------|--L------------3----|
-------------------|-------------------|--------------------|


  W                   W                   H        Q.     E   
-------------------|-------------------|---------------------|
-------------------|-------------------|---------------------|
-------------------|-------------------|------------------5--|
--1----------------|--3----------------|--5--------L------5--|
--1----------------|--3----------------|--5--------L------3--|
-------------------|-------------------|--5--------L---------|


  Q.     H        E     W                   W                 
---------------------|-------------------|-------------------|
---------------------|-------------------|-------------------|
--L------3--------L--|-------------------|-------------------|
--L------3--------L--|--1----------------|--3----------------|
--L------1--------L--|--1----------------|--3----------------|
---------------------|--1----------------|--3----------------|


  H        Q.     E     Q.     H        E     W                 
---------------------|---------------------|-------------------|
---------------------|---------------------|-------------------|
------------------5--|--L------3--------L--|-------------------|
--5--------L------5--|--L------3--------L--|--1----------------|
--5--------L------3--|--L------1--------L--|--1----------------|
--5--------L---------|---------------------|--1----------------|


  W                   H        Q.     E     Q.     H        E   
-------------------|---------------------|---------------------|
-------------------|---------------------|---------------------|
-------------------|------------------5--|--L------3--------L--|
--3----------------|--5--------L------5--|--L------3--------L--|
--3----------------|--5--------L------3--|--L------1--------L--|
--3----------------|--5--------L---------|---------------------|


  W                   E  E   E  Q    Q    S S    E  E  E  E  E  E  E  E   
-------------------|--------------------------|--------------------------|
-------------------|--------------------------|--------------------------|
-------------------|------------5----3--------|--------------------------|
--1----------------|--3--3\-----5----3----3-3-|--1--1--1--1--1--1--1--1--|
--1----------------|--3--3\-----3----1----3-3-|--1--1--1--1--1--1--1--1--|
--1----------------|--3--3\-------------------|--1--1--1--1--1--1--1--1--|


  E  E  E  E  E  E  E  E     E  S  E  S S S S S S S  Q     
--------------------------|-------------------------------|
--------------------------|-------------------------------|
--------------------------|--5--5s-3--0-------------------|
--3--3--3--3--3--3--3--3--|--5--5s-3--0-------------------|
--3--3--3--3--3--3--3--3--|--3--3s-1----3-1-0-3-1-0-/5----|
--3--3--3--3--3--3--3--3--|-------------3-1-0-3-1-0-/5----|


  E  S  E  S S S S S S S  Q       E  S  E  S S S S S S S  Q     
-------------------------------|-------------------------------|
-------------------------------|-------------------------------|
--5--5s-3--0-------------------|--5--5s-3--0-------------------|
--5--5s-3--0-------------------|--5--5s-3--0-------------------|
--3--3s-1----3-1-0-3-1-0-/5----|--3--3s-1----3-1-0-3-1-0-/5----|
-------------3-1-0-3-1-0-/5----|-------------3-1-0-3-1-0-/5----|


  E  S  E  S S S S S S S  Q       H        Q.     E     Q.     H        E   
-------------------------------|---------------------|---------------------|
-------------------------------|---------------------|---------------------|
--5--5s-3--0-------------------|------------------5--|--L------3--------L--|
--5--5s-3--0-------------------|--5--------L------5--|--L------3--------L--|
--3--3s-1----3-1-0-3-1-0-/5----|--5--------L------3--|--L------1--------L--|
-------------3-1-0-3-1-0-/5----|--5--------L---------|---------------------|


  W                   W                   H        Q.     E   
-------------------|-------------------|---------------------|
-------------------|-------------------|---------------------|
-------------------|-------------------|------------------5--|
--1----------------|--3----------------|--5--------L------5--|
--1----------------|--3----------------|--5--------L------3--|
--1----------------|--3----------------|--5--------L---------|


  Q.     H        E     E  E  E  E  E  E  E  E     E  E  E  E  E  E  E  E   
---------------------|--------------------------|--------------------------|
---------------------|--------------------------|--------------------------|
--L------3--------L--|--------------------------|--------------------------|
--L------3--------L--|--1--1--1--1--1--1--1--1--|--3--3--3--3--3--3--3--3--|
--L------1--------L--|--1--1--1--1--1--1--1--1--|--3--3--3--3--3--3--3--3--|
---------------------|--1--1--1--1--1--1--1--1--|--3--3--3--3--3--3--3--3--|


  H        Q.     E     Q.     H        E     W                 
---------------------|---------------------|-------------------|
---------------------|---------------------|-------------------|
------------------5--|--L------3--------L--|-------------------|
--5--------L------5--|--L------3--------L--|--1----------------|
--5--------L------3--|--L------1--------L--|--1----------------|
--5--------L---------|---------------------|--1----------------|


  E  E   E  Q    Q    S S    E  E  E  E  E  E  E  E     E  E  E  Q    Q    S S  
--------------------------|--------------------------|-------------------------|
--------------------------|--------------------------|-------------------------|
------------5----3--------|--------------------------|-----------5----3--------|
--3--3\-----5----3----3-3-|--1--1--1--1--1--1--1--1--|--3--3--3--5----3----3-3-|
--3--3\-----3----1----3-3-|--1--1--1--1--1--1--1--1--|--3--3--3--3----1----3-3-|
--3--3\-------------------|--1--1--1--1--1--1--1--1--|--3--3--3----------------|


  E  E  E  E  E  E  E  E     E  E  E  E  E  E  E  E   
--------------------------|--------------------------|
--------------------------|--------------------------|
--------------------------|--------------------------|
--1--1--1--1--1--1--1--1--|--3--3--3--3--3--3--3--3--|
--1--1--1--1--1--1--1--1--|--3--3--3--3--3--3--3--3--|
--1--1--1--1--1--1--1--1--|--3--3--3--3--3--3--3--3--|


  E  S  E  S S S S S S S  Q       E  S  E  S S S S S S S  Q     
-------------------------------|-------------------------------|
-------------------------------|-------------------------------|
--5--5s-3--0-------------------|--5--5s-3--0-------------------|
--5--5s-3--0-------------------|--5--5s-3--0-------------------|
--3--3s-1----3-1-0-3-1-0-/5----|--3--3s-1----3-1-0-3-1-0-/5----|
-------------3-1-0-3-1-0-/5----|-------------3-1-0-3-1-0-/5----|


  E  S  E  S S S S S S S  Q       E  S  E  S S S S S S S  Q      
-------------------------------|-------------------------------||
-------------------------------|-------------------------------||
--5--5s-3--0-------------------|--5--5s-3--0-------------------||
--5--5s-3--0-------------------|--5--5s-3--0-------------------||
--3--3s-1----3-1-0-3-1-0-/5----|--3--3s-1----3-1-0-3-1-0-/5----||
-------------3-1-0-3-1-0-/5----|-------------3-1-0-3-1-0-/5----||



========================================================================
========================================================================
========================================================================



Guitar 2



             E  S  E  S S S S S S S  Q       E  S  E  S S S S S S S  Q     
E||-------|-------------------------------|-------------------------------|
B||-------|-------------------------------|-------------------------------|
G||-------|--5--5s-3--0-------------------|--5--5s-3--0-------------------|
D||-------|--5--5s-3--0-------------------|--5--5s-3--0-------------------|
A||-------|--3--3s-1--------0-------------|--3--3s-1--------0-------------|
D||-------|-------------3-1-3-1-3-1-/5----|-------------3-1-3-1-3-1-/5----|


  E  S  E  S S S S S S S  Q       E  S  E  S S S S S S S  Q     
-------------------------------|-------------------------------|
-------------------------------|-------------------------------|
--5--5s-3--0-------------------|--5--5s-3--0-------------------|
--5--5s-3--0-------------------|--5--5s-3--0-------------------|
--3--3s-1--------0-------------|--3--3s-1--------0-------------|
-------------3-1-3-1-3-1-/5----|-------------3-1-3-1-3-1-/5----|


  S  H.           E.     H        E  S S Q       W                 
----------------------|-----------------------|-------------------|
----------------------|-----------------------|-------------------|
----------------------|--------------x-x------|--3----------------|
----------------------|--------------x-x-3----|--1----------------|
--1s-3------------L---|--L--------L--x-x-3----|--1----------------|
----------------------|-----------------------|-------------------|


  Q    Q    S  S E  S  S E     E   E  H        Q       E  E  E  E  E  S S Q     
----------------------------|-----------------------|--------------------------|
-------6-----------------L--|---------5--------L----|-----x-----x--------------|
--5----5-----------------L--|--L------5--------L----|--L--x-----x--x--x-x------|
--3---------5p-3----3h-5-3--|--L--/5-----------L----|--L--x-----x--x--x-x-3----|
--3------------L-3----------|-----/3-----------L----|-----x-----x--x--x-x-3----|
----------------------------|-----------------------|--------------------------|


  W                   Q    Q    S  S E  S S E     W                 
-------------------|---------------------------|-------------------|
-------------------|-------6----------------L--|-------------------|
--3----------------|--5----5----------------L--|-------------------|
--1----------------|--3---------5p-3----3-5-3--|--5----------------|
--1----------------|--3------------L-3---------|--3----------------|
-------------------|---------------------------|-------------------|


  H        E  S S Q       W                   Q    Q    S  S E  S S E   
-----------------------|-------------------|---------------------------|
-----------------------|-------------------|-------6----------------L--|
--------------x-x------|-------------------|--5----5----------------L--|
--L-----------x-x-3----|--1----------------|--3---------5p-3----3-5-3--|
--L--------L--x-x-3----|--1----------------|--3------------L-3---------|
-----------------------|-------------------|---------------------------|


  E  E  Q    E  E  Q       E  E  Q    E  E  Q       E  E  E  E  E  E  E  E   
------------------------|------------------------|--------------------------|
--------1----------1----|--------1---------------|--------------------------|
--------3----------3----|--------3----------3----|--------------------------|
------------------------|-------------------3----|--1--1--1--1--1--1--1--1--|
--3--3-------L--3-------|--L--3-------L--3--3----|--1--1--1--1--1--1--1--1--|
------------------------|------------------------|--------------------------|


  E  E  E  E  E  E  E  E     Q    E  E  E  E  E  E     E  E  E  E  E  E  E  E   
--------------------------|-------------------------|--------------------------|
--------------------------|-------------------------|--------------------------|
--------------------------|----------------------5--|--L--5--5--3--L--3--3--3--|
--3--3--3--3--3--3--3--3--|--5----5--5--5--5--5--5--|--L--5--5--3--L--3--3--3--|
--3--3--3--3--3--3--3--3--|--5----5--5--5--5--5--3--|--L--3--3--1--L--1--1--1--|
--------------------------|--5----5--5--5--5--5-----|--------------------------|


  E  E  E  E  E  E  E  E     E  E  E  E  E  E  E  E     Q    E  E  E  E  E  E   
--------------------------|--------------------------|-------------------------|
--------------------------|--------------------------|-------------------------|
--------------------------|--------------------------|----------------------5--|
--1--1--1--1--1--1--1--1--|--3--3--------------------|--5----5--5--5--5--5--5--|
--1--1--1--1--1--1--1--1--|--3--3--3--3--3--3--3--3--|--5----5--5--5--5--5--3--|
--1--1--1--1--1--1--1--1--|--3--3--3--3--3--3--3--3--|--5----5--5--5--5--5-----|


  E  E  E  E  E  E  E  E     E  E  E  E  E  E  E  E   
--------------------------|--------------------------|
--------------------------|--------------------------|
--L--5--5--3--L--3--3--3--|--------------------------|
--L--5--5--3--L--3--3--3--|--1--1--1--1--1--1--1--1--|
--L--3--3--1--L--1--1--1--|--1--1--1--1--1--1--1--1--|
--------------------------|--1--1--1--1--1--1--1--1--|


  E  E  E  E  E  E  E  E     E  S  E  S S S S S S S  Q     
--------------------------|-------------------------------|
--------------------------|-------------------------------|
--------------------------|--5--5s-3--0-------------------|
--3--3--3--3--3--3--3--3--|--5--5s-3--0-------------------|
--3--3--3--3--3--3--3--3--|-----------------0-------------|
--3--3--3--3--3--3--3--3--|-------------3-1-3-1-3-1-/5----|


  E  S  E  S S S S S S S  Q       E  S  E  S S S S S S S  Q     
-------------------------------|-------------------------------|
-------------------------------|-------------------------------|
--5--5s-3--0-------------------|--5--5s-3--0-------------------|
--5--5s-3--0-------------------|--5--5s-3--0-------------------|
-----------------0-------------|-----------------0-------------|
-------------3-1-3-1-3-1-/5----|-------------3-1-3-1-3-1-/5----|


  E  S  E  S S S S S S S  Q       S  H.           E.     H        E  S S Q     
-------------------------------|----------------------|-----------------------|
-------------------------------|----------------------|-----------------------|
--5--5s-3--0-------------------|----------------------|--------------x-x------|
--5--5s-3--0-------------------|----------------------|--------------x-x-3----|
-----------------0-------------|--1s-3------------L---|--L--------L--x-x-3----|
-------------3-1-3-1-3-1-/5----|----------------------|-----------------------|


  W                   Q    Q    S  S E  S  S E     E   E  H        Q     
-------------------|----------------------------|-----------------------|
-------------------|-------6-----------------L--|---------5--------L----|
--3----------------|--5----5-----------------L--|--L------5--------L----|
--1----------------|--3---------5p-3----3h-5-3--|--L--/5-----------L----|
--1----------------|--3------------L-3----------|-----/3-----------L----|
-------------------|----------------------------|-----------------------|


  E  E  E  E  E  S S Q       W                   Q    Q    S  S E  S S E   
--------------------------|-------------------|---------------------------|
-----x-----x--------------|-------------------|-------6----------------L--|
--L--x-----x--x--x-x------|--3----------------|--5----5----------------L--|
--L--x-----x--x--x-x-3----|--1----------------|--3---------5p-3----3-5-3--|
-----x-----x--x--x-x-3----|--1----------------|--3------------L-3---------|
--------------------------|-------------------|---------------------------|


  W                   H        E  S S Q       W                 
-------------------|-----------------------|-------------------|
-------------------|-----------------------|-------------------|
-------------------|--------------x-x------|-------------------|
--5----------------|--L-----------x-x-3----|--1----------------|
--3----------------|--L--------L--x-x-3----|--1----------------|
-------------------|-----------------------|-------------------|


  Q    Q    S  S E  S S E     E  E  Q    E  E  Q       E  E  Q    E  E  Q     
---------------------------|------------------------|------------------------|
-------6----------------L--|--------1----------1----|--------1---------------|
--5----5----------------L--|--------3----------3----|--------3----------3----|
--3---------5p-3----3-5-3--|------------------------|-------------------3----|
--3------------L-3---------|--3--3-------L--3-------|--L--3-------L--3--3----|
---------------------------|------------------------|------------------------|


  E  E  E  E  E  E  E  E     E  E  E  E  E  E  E  E     Q    E  E  E  E  E  E   
--------------------------|--------------------------|-------------------------|
--------------------------|--------------------------|-------------------------|
--------------------------|--------------------------|----------------------5--|
--1--1--1--1--1--1--1--1--|--3--3--3--3--3--3--3--3--|--5----5--5--5--5--5--5--|
--1--1--1--1--1--1--1--1--|--3--3--3--3--3--3--3--3--|--5----5--5--5--5--5--3--|
--------------------------|--------------------------|--5----5--5--5--5--5-----|


  E  E  E  E  E  E  E  E     E  E  E  E  E  E  E  E   
--------------------------|--------------------------|
--------------------------|--------------------------|
--L--5--5--3--L--3--3--3--|--------------------------|
--L--5--5--3--L--3--3--3--|--1--1--1--1--1--1--1--1--|
--L--3--3--1--L--1--1--1--|--1--1--1--1--1--1--1--1--|
--------------------------|--1--1--1--1--1--1--1--1--|


  E  E  E  E  E  E  E  E     Q    E  E  E  E  E  E     E  E  E  E  E  E  E  E   
--------------------------|-------------------------|--------------------------|
--------------------------|-------------------------|--------------------------|
--------------------------|----------------------5--|--L--5--5--3--L--3--3--3--|
--3--3--------------------|--5----5--5--5--5--5--5--|--L--5--5--3--L--3--3--3--|
--3--3--3--3--3--3--3--3--|--5----5--5--5--5--5--3--|--L--3--3--1--L--1--1--1--|
--3--3--3--3--3--3--3--3--|--5----5--5--5--5--5-----|--------------------------|


  E  E  E  E  E  E  E  E     E  E  E  E  E  E  E  E     Q    E  E  E  E  E  E   
--------------------------|--------------------------|-------------------------|
--------------------------|--------------------------|-------------------------|
--------------------------|--------------------------|----------------------5--|
--1--1--1--1--1--1--1--1--|--3--3--3--3--3--3--3--3--|--5----5--5--5--5--5--5--|
--1--1--1--1--1--1--1--1--|--3--3--3--3--3--3--3--3--|--5----5--5--5--5--5--3--|
--1--1--1--1--1--1--1--1--|--3--3--3--3--3--3--3--3--|--5----5--5--5--5--5-----|


  E  E  E  E  E  E  E  E     E  E  E  E  E  E  E  E     E  E  E  Q    Q    S S  
--------------------------|--------------------------|-------------------------|
--------------------------|--------------------------|-------------------------|
--L--5--5--3--L--3--3--3--|--------------------------|-----------5----3--------|
--L--5--5--3--L--3--3--3--|--1--1--1--1--1--1--1--1--|--3--3-----5----3----3-3-|
--L--3--3--1--L--1--1--1--|--1--1--1--1--1--1--1--1--|--3--3-----3----1----3-3-|
--------------------------|--1--1--1--1--1--1--1--1--|--3--3-------------------|


  E  E  E  E  E  E  E  E     E  E  E  E  E  E  E  E   
--------------------------|--------------------------|
--------------------------|--------------------------|
--------------------------|--------------------------|
--1--1--1--1--1--1--1--1--|--3--3--3--3--3--3--3--3--|
--1--1--1--1--1--1--1--1--|--3--3--3--3--3--3--3--3--|
--1--1--1--1--1--1--1--1--|--3--3--3--3--3--3--3--3--|


  E  S  E  S S S S S S S  Q       E  S  E  S S S S S S S  Q     
-------------------------------|-------------------------------|
-------------------------------|-------------------------------|
--5--5s-3--0-------------------|--5--5s-3--0-------------------|
--5--5s-3--0-------------------|--5--5s-3--0-------------------|
-----------------0-------------|-----------------0-------------|
-------------3-1-3-1-3-1-/5----|-------------3-1-3-1-3-1-/5----|


  E  S  E  S S S S S S S  Q       E  S  E  S S S S S S S  Q     
-------------------------------|-------------------------------|
-------------------------------|-------------------------------|
--5--5s-3--0-------------------|--5--5s-3--0-------------------|
--5--5s-3--0-------------------|--5--5s-3--0-------------------|
-----------------0-------------|-----------------0-------------|
-------------3-1-3-1-3-1-/5----|-------------3-1-3-1-3-1-/5----|


  Q    E  E  E  E  E  E     E  E  E  E  E  E  E  E     E  E  E  E  E  E  E  E   
-------------------------|--------------------------|--------------------------|
-------------------------|--------------------------|--------------------------|
----------------------5--|--L--5--5--3--L--3--3--3--|--------------------------|
--5----5--5--5--5--5--5--|--L--5--5--3--L--3--3--3--|--1--1--1--1--1--1--1--1--|
--5----5--5--5--5--5--3--|--L--3--3--1--L--1--1--1--|--1--1--1--1--1--1--1--1--|
--5----5--5--5--5--5-----|--------------------------|--1--1--1--1--1--1--1--1--|


  E  E  E  E  E  E  E  E     Q    E  E  E  E  E  E     E  E  E  E  E  E  E  E   
--------------------------|-------------------------|--------------------------|
--------------------------|-------------------------|--------------------------|
--------------------------|----------------------5--|--L--5--5--3--L--3--3--3--|
--3--3--------------------|--5----5--5--5--5--5--5--|--L--5--5--3--L--3--3--3--|
--3--3--3--3--3--3--3--3--|--5----5--5--5--5--5--3--|--L--3--3--1--L--1--1--1--|
--3--3--3--3--3--3--3--3--|--5----5--5--5--5--5-----|--------------------------|


  E  E  E  E  E  E  E  E     E  E  E  E  E  E  E  E     Q    E  E  E  E  E  E   
--------------------------|--------------------------|-------------------------|
--------------------------|--------------------------|-------------------------|
--------------------------|--------------------------|----------------------5--|
--1--1--1--1--1--1--1--1--|--3--3--3--3--3--3--3--3--|--5----5--5--5--5--5--5--|
--1--1--1--1--1--1--1--1--|--3--3--3--3--3--3--3--3--|--5----5--5--5--5--5--3--|
--1--1--1--1--1--1--1--1--|--3--3--3--3--3--3--3--3--|--5----5--5--5--5--5-----|


  E  E  E  E  E  E  E  E     E  E  E  E  E  E  E  E     E  E  E  Q    Q    S S  
--------------------------|--------------------------|-------------------------|
--------------------------|--------------------------|-------------------------|
--L--5--5--3--L--3--3--3--|--------------------------|-----------5----3--------|
--L--5--5--3--L--3--3--3--|--1--1--1--1--1--1--1--1--|--3--3-----5----3----3-3-|
--L--3--3--1--L--1--1--1--|--1--1--1--1--1--1--1--1--|--3--3-----3----1----3-3-|
--------------------------|--1--1--1--1--1--1--1--1--|--3--3-------------------|


  E  E  E  E  E  E  E  E     E  E  E  Q    Q    S S    E  E  E  E  E  E  E  E   
--------------------------|-------------------------|--------------------------|
--------------------------|-------------------------|--------------------------|
--------------------------|-----------5----3--------|--------------------------|
--1--1--1--1--1--1--1--1--|--3--3--3--5----3----3-3-|--1--1--1--1--1--1--1--1--|
--1--1--1--1--1--1--1--1--|--3--3--3--3----1----3-3-|--1--1--1--1--1--1--1--1--|
--1--1--1--1--1--1--1--1--|--3--3--3----------------|--1--1--1--1--1--1--1--1--|


  E  E  E  E  E  E  E  E     E  S  E  S S S S S S S  Q     
--------------------------|-------------------------------|
--------------------------|-------------------------------|
--------------------------|--5--5s-3--0-------------------|
--3--3--3--3--3--3--3--3--|--5--5s-3--0-------------------|
--3--3--3--3--3--3--3--3--|-----------------0-------------|
--3--3--3--3--3--3--3--3--|-------------3-1-3-1-3-1-/5----|


  E  S  E  S S S S S S S  Q       E  S  E  S S S S S S S  Q     
-------------------------------|-------------------------------|
-------------------------------|-------------------------------|
--5--5s-3--0-------------------|--5--5s-3--0-------------------|
--5--5s-3--0-------------------|--5--5s-3--0-------------------|
-----------------0-------------|-----------------0-------------|
-------------3-1-3-1-3-1-/5----|-------------3-1-3-1-3-1-/5----|


  E  S  E  S S S S S S S  Q      
-------------------------------||
-------------------------------||
--5--5s-3--0-------------------||
--5--5s-3--0-------------------||
-----------------0-------------||
-------------3-1-3-1-3-1-/5----||




Duration Legend
---------------
W - whole
H - half
Q - quarter
E - 8th
S - 16th
T - 32nd
X - 64th
. - note dotted
|-n-|  - n-tuplets


Tablature Legend
----------------
L - tied note
x - dead note
g - grace note
(n) - ghost note
> - accentuded note
NH - natural harmonic
AH - artificial harmonic
TH - tapped harmonic
SH - semi harmonic
PH - pitch harmonic
h - hammer on
p - pull off
b - bend
br - bendRelease
pb - preBend
pbr - preBendRelease
brb - bendReleaseBend
\n/ - tremolo bar dip
\n - tremolo bar dive
-/n - tremolo bar Release up
/n\ - tremolo bar inverted dip
/n - tremolo bar return
-\n - tremolo bar Release down
S - shift slide
s - legato slide
/ -  slide into from below or out of upwards
\ -  slide into from above or out of downwards
~ - vibrato
W - wide vibrato
tr - trill
TP - tremolo picking
T - tapping
S - slap
P - pop
< - fade in
^ - brush up
v - brush down

Добавлено: 14.05.2012
Другие материалы по этой песне:

Страница создана 12.04.2012
http://primanota.ru/expanding-man/download-chords.htm
Привет, Гость.
Предлагаем пройти революционный курс по гитаре.
Подарок от PrimaNota.Ru, забирай!