PrimaNota.ru - самый крупный в мире бесплатный архив песенных текстов, аккордов, табулатур и нот


Exodus - Nanking - таба, видео

Регистрация Запомнить меня
Войти через:  Facebook Google Twitter Vk Yandex Mail.ru

Exodus - Nanking - таба, видео

Печатать
Просмотров: 304
Уроки эстрадного вокала в Санкт-Петербурге
-------------------------------------------------------------------------------
                             Nanking - Exodus
-------------------------------------------------------------------------------
Tabbed by: Efilnikufesin89
Email: craigchrist666@hotmail.com

Tuning:D,G,C,F,A,D

e|-----------------------------------------------------------------------------|
B|-----------------------------------------------------------------------------|
G|-----------------------------------------------------------------------------|
D|-----------2-3-2--3h5-2-3---2-3-2-0-h---------------2-3-2--3h5-2-3-----------|
A|-----2---2-------------------------------3---2--2-------------------5--------|
E|-----0-----------------------------------1---0-------------------------0-----|

e|-----------------------------------------------------------------------------|
B|-----------------------------------------------------------------------------|
G|-----------------------------------------------------------------------------|
D|---------2--3-2-3h5-2-3--2-3-2-0-h------------------------------2--3-2-------|
A|---2--2-------------------------------3--2-----7h8--7-5---2--2---------------|
E|---0--------------------------------1-------5-------------0------------------|

e|-----------------------------------------------------------------------------|
B|-----------------------------------------------------------------------------|
G|-----------------------------------------------------------------------------|
D|--3h5--2-3--2-3-2-0-h------------2--3-2--3h5-2-3--7-7-7-------2--3-2---------|
A|------------------------3---2--2------------------5-5-5---2-2----------------|
E|------------------------1---0-----------------------------0------------------|

e|------------------------------------------------------------0----------0-----|
B|-----------------------------------------------------------------------------|
G|-------------------------------------------------------4p5-----45-43-4p-4----|
D|-3h5---2-3--2-3-2-0-h--------------------------------------------------------|
A|--------------------------3-----2------7h8--7-5---2--------------------------|
E|-----------------------1-----------5--------------0--------------------------|

e|----0---------0--------0--------0------------0---------0---------------------|
B|------------------------------------------------------------0----------------|
G|4p5---45-434p---4---4p5--45434p----3432p---3----23202p-----------------------|
D|---------------------------------------------------------3-------------------|
A|-----------------------------------------------------------------------------|
E|-----------------------------------------------------------------------------|



************************************

| /   slide up
| \   slide down
| h   hammer-on
| p   pull-off
| ~   vibrato
| +   harmonic
| x   Mute note
| b   Bend
| pb  Pre-bend
| br  Bend release
| pbr Pre-bend release
| brb Bend release bend

************************************
Добавлено: 03.07.2012
Другие материалы по этой песне:
  • Аккорды и текст

Страница создана 03.07.2012
http://primanota.ru/exodus/nanking-chords.htm
Привет, Гость.
Предлагаем пройти революционный курс по гитаре.
Подарок от PrimaNota.Ru, забирай!