PrimaNota.ru - самый крупный в мире бесплатный архив песенных текстов, аккордов, табулатур и нот


Exodus - Low Rider - аккорды и текст, таба, видео

Регистрация Запомнить меня
Войти через:  Facebook Google Twitter Vk Yandex Mail.ru

Exodus - Low Rider - аккорды и текст, таба, видео

Печатать
Просмотров: 195
Авторы: Jerry Goldstein, Howard E. Scott, Papa Dee Allen, Lonnie Jordan, Charles Miller, Lee Oskar, B.B. Dickerson, Harold Brown

Low Rider
Exodus
Band: Exodus

Album: Fabulous Disaster

Song: Lowrider

Version 1.0 ^Ö 1/27/03

Transcribed By: Jason Messer

Email: jason.messer3@verizon.net

.  - palm mute           /  - slide up to
\  - slide down to       ~  - vibrato
h  - hammer on           b  - Bend
p  - pull off            Suffixes for bend
t  - tap                 f  - full bend    h - half bend
ph - pinched harmonic    q  - quarter bend t - tap bend
*  - see comment         ^  - Hold bend    r release bend
x  - Stuccatto           ~  - vibrato bend
,  - slight palm mute    () - ghost note, sustained note
"  - tremolo note         > - Trill

Tunning E B G D A E

1st Riff

|-------------------------------------------------------------------|
|-------------------------------------------------------------------|
|-2-------2-----2-4-2-----------------------------------------------|
|-2-4-4-6-2-4-4-2-4-2-4---------------------------------------------|
|-0-4-4-6-0-4-4-0-2-0-4---------------------------------------------|
|---2-2-4---2-2-------2---------------------------------------------|

Pre Solo Part
|-------------------------------------------------------------------|
|-------------------------------------------------------------------|
|-6-6-6-6-6-7-9----------------6-6-6-6-6--6-6-6-6-6-6h8~~~~~--------|
|----------------6-8-9-8-4------------------------------------------|
|-------------------------------------------------------------------|
|-------------------------------------------------------------------|


If anybody knows the fast parts email them to me, they are probably minor
pentatonic scales.

This os all the time I have to type, if you see any problems email me the
corrections.

Thanks, Jason.


     
Добавлено: 28.07.2013
Другие материалы по этой песне:
  • Аккорды и текст

Страница создана 29.04.2012
http://primanota.ru/exodus/low-rider-chords.htm
Привет, Гость.
Предлагаем пройти революционный курс по гитаре.
Подарок от PrimaNota.Ru, забирай!