PrimaNota.ru - самый крупный в мире бесплатный архив песенных текстов, аккордов, табулатур и нот


Exodus - Chemi-kill - текст песни, таба, видео

Регистрация Запомнить меня
Войти через:  Facebook Google Twitter Vk Yandex Mail.ru

Exodus - Chemi-kill - текст песни, таба, видео

Печатать
Просмотров: 180
        Chemi-Kill

-------3-----------3-----------3------3-}]---6x----------------|
-----3---3-------3---3-------3---3----3-{----------------------|
---6-------6---5-------5---6-------6--0-}--.-------------------|
-6-----------5-----------6------------5-{--.-------------------|
---------------------------------------------------------------|
-G1------------------------------------------------------------|
|                                                             |
-/-3rd-time--/-----------/-------------------4x----------------|
-\-----------\-----------\-------------------------------------|
-6-----------5-----------6-----------------.-------------------|
-6-----------5-----------6------------5----.-------------------|
-4-----------3-----------4------------5------------------------|
-G2-----------------------------------3------------------------|

-riff1--------------------------------------|-----24-19~~~-----|
--------------------------------------------|-/20-------bar----|
-6-----------5-----------------------------.|------------------|
-6-----------5-----5----5----5/6------5----.|------------------|
-4-----------3-----3-33-3-33-3/4------5-----|------------------|
--------------------------------------3-----|-fill1------------|
                            +1     +1       )+2
---------------------|-1515--)1515--)1515-18-----|-------------|
-------_41/2---------|-----18-----18-------------|-------------|
--7--\---------5-~~~-|---------------------------|--0-\--------|
--hm--\--/\--/-hm----|---------------------------|-----\-------|
-------\/--\/--------|---------------------------|------\slack-|
-fill2---------------|-fill3---------------------|-fill4-------|

-riff2---G1----------------------------------------------------|
---------------------------------------------------------------|
-6----5-------------------------6-5----------------------------|
-6----5-------------------------6-5----------------------------|
-4----3-------------------------4-3----------------------------|
--------3-3-4-3-3-6-3-3-4-3-6-3-----3-3-4-3-3-6-3-3-4-3--------|
                                    ____________________
                                                   1.-3.|
----------------------------------------------------2x---riff2-|
---------------------------------------------------------G1+G2-|
-6----5------------------------------------------------.---2x--|
-6----5------------------------------------------------.-------|
-4----3-------------------------3-5----------------------------|
--------3-3-4-3-3-6-3-3-4-3-6-3-1-3-3-3-4-3-3-6-3-3-4-3--------|
___________
|4.
------------|
------------|
------------|
------------|
------------|
-3-3-4--6-4-|

-riff3-----------|----------------|--------------|----------4x--.
.----------------|----------------|--------------|--------------.
-----------------|----------------|--------------|--------------.
-3-5-6-------5---|---3-----------;|-3-5-6---5----|3--3-3-----;--.
.1-3-4-------3---|---1---------5--|-1-3-4---3----|1--1-1---5----.
-------3-3-3---3-|-3---3-3-3-3-3--|-------3----3-|-------3-3----.
                ___________________________
                                     1.-3. |
-riff4-G1-----------|----------------------|
--------------------|----------------------|
--------------------|----------------------|
--------------------|----------------------|
--------------------|----------------------|
-4-44-4-44-3-33-3-4--(4)-44-4-44-3-33-3-33-|
|                                          |
-G2-----------------|----------------------|
--------------------|----------------------|
-6----6-6-----------|-6-----6-6------------|
-6----6-6-----------|-6-----6-6------------|
-4----4-4------5-;--|-4-----4-4-------5-;--|
----------3-33-3----|------------3-33-3----|
_____
|4.
------|-riff2-|
------|-riff3-|
------|-riff1-|
------|-riff4-|
-3/5--|-------|
-1/3--|-------|             ________________________________
                                     1.-3.|4.
-riff5-G1------------|--------------------|--------------------|
---------------------|--------------------|----p---------------|
---------------------|--------------------|----^---------------|
---------------------|--------------------|---2-0---2---2------|
---------------------|--------------------|-2-2-0---2---2------|
-1-11-1-11-1-11-1-11-|-0---0-00-0-00-0-00-|-0------------------|
|                                                             |
-G2------------------|--------------------|--------------------|
---------------------|--------------------|----p---------------|
-3-------------------|--------------------|----^---------------|
-3-------------------|-2------------------|---2-0---2---2------|
-1-------------------|-2------------------|-2-2-0---2---2------|
---------------------|-0------------------|-0------------------|

-riff5|-riff6-G1------------|--------------------4x-|
------|---------------------|-----------------------|
------|---------------------|-----------------------|
------|---------------------|-----------------------|
------|---------------------|-----------------------|
------|-1-11-1-11-0-00-0-1---(1)-11-1-11-0-00-0-00--|
|                                                  |
------|-G2------------------|-----------------------|
------|---------------------|-----------------------|
------|-3----3--------------|-3-----3-3-------------|
------|-3----3----2-;--}----|-3-----3-3-------------|
------|-1----1----2---------|-1-----1-1-2----2------|
------|-----------0---------|-----------0-00-0------|

-------0-----------0-----------0---------4x-|
-----0---0-------0---0-------0---0---6-}]---|
---3-------3---2-------2---3-------3-5-{--.-|
-3-----------2-----------3-----------2-}--.-|
-------------------------------------2-{----|
-riff7--------------------------------------|

-riff8-------------------------------------16x---|
-------------------------------------------------|
-----------------------------------------------.-|
-8-----------7-----7----7----7/8--2------------.-|
-8-----------7-----7----7----7/8--2--------------|
-6-----------5-----5-55-5-55-5/6--0--0-00-0-00---|

---------------------------------------------------------------|
---------------------------------------------------------------|
-3----2-------------------------3-2----------------------------|
-3----2-------------------------3-2----------------------------|
-1----0-------------------------1-0----------------------------|
--------0-0-1-0-0-3-0-0-1-0-3-0-----0-0-1-0-0-3-0-1-0----------|
                               _________________________
                                                1.-3.   |
---------------------------------------------------------------|
---------------------------------------------------------------|
-3----2-------------------------------------------------.------|
-3----2-------------------------0-2---------------------.------|
-1----0-------------------------0-2----------------------------|
--------0-0-1-0-0-3-0-0-1-0-3-0-----0-0-1-0-0-3-0-0-1-0--------|
__________
4.
---------------------------------------------------------------|
---------------------------------------------------------------|
---------------------------------------------------------------|
-0-2-----------------------------------------------------------|
-0-2-----------------------------------------------------------|
---------------------------------------------------------------|
Добавлено: 04.07.2012
Другие материалы по этой песне:

Страница создана 09.05.2012
http://primanota.ru/exodus/chemi-kill-chords.htm
Привет, Гость.
Предлагаем пройти революционный курс по гитаре.
Подарок от PrimaNota.Ru, забирай!