PrimaNota.ru - самый крупный в мире бесплатный архив песенных текстов, аккордов, табулатур и нот


Exodus - 44 Magnum Opus - текст песни, таба, видео

Регистрация Запомнить меня
Войти через:  Facebook Google Twitter Vk Yandex Mail.ru

Exodus - 44 Magnum Opus - текст песни, таба, видео

Печатать
Просмотров: 135
          44 MAGNUM OPUS (SOLOS)
                              As recorded by Exodus

D Tuning

  Fast Rock Q=100
  Gtr I
|--------------------------------------------------------|
|--------------------------------------------------------|
|------------------10-9-7-9-10-9-7-9-10-9-7-9-10-9-7-9---|
|--------------------------------------------------------|
|--------------------------------------------------------|
|--------------------------------------------------------|


|------------------------------------------------------------------------------|
|------------------------------------------------------------------------------|
|-10-9-7-9-10-9-7-9-10-9-7-9-10-9-7-9-10-9-7-9-10-9-7-9-10-9-7-9-10-9-7-9-10---|
|------------------------------------------------------------------------------|
|------------------------------------------------------------------------------|
|------------------------------------------------------------------------------|


                                                             ~
|-----------------------------------------------------------------|
|-----------------------------------------------------------------|
|-9-10-9-10-9-10-9-12-9-10-9-10-9-10-9-12-9-10-9-10-9-12-9-7-9----|
|-----------------------------------------------------------------|
|-----------------------------------------------------------------|
|-----------------------------------------------------------------|


                                                 \4
                          ~
|------------------------------------------------------|
|------------------------------------------------------|
|-4-5-7-5-4--------------------------------------------|
|-----------7-5-4-5-7-5-4------------------------------|
|-------------------------5--2-3-5-3-2-0-2-0-----------|
|--------------------------------------------3-2-0-----|


   TP  TP TP TP TP TPTP TPTP TP TPTP TPTP
|-----------------------------------------|
|-15--13-12-10-12-10-9-10-9\-6-10-9\-6-5--|
|-----------------------------------------|
|-----------------------------------------|
|-----------------------------------------|
|-----------------------------------------|


                      ~~~~~~~~~~~~~~~~~~~~~~~~~
|-------------------------------|-----------------*|
|-5-6-5-----5-------------------|-----------------*|
|-------7-5---7-5-7-5-4---------|-----------------*|
|-------------------------------|-6---------------*|
|-------------------------------|------------7----*|
|-------------------------------|-----------------*|


|-|
|-|
|-|
|-|
|-|
|-|


  Q=100
  Gtr I
|-19p15----------15-19p15----------15-19p15----------15-19p15----------15-|
|-------17----17----------17----17----------17----17----------17----17----|
|----------16----------------16----------------16----------------16-------|
|-------------------------------------------------------------------------|
|-------------------------------------------------------------------------|
|-------------------------------------------------------------------------|


|-19p15----17p14----15p12----------12-15p12-----------------------------------|
|-------17-------15-------13p12h13----------13-18p15\-14-17p14\-13-16p13\-12--|
|-----------------------------------------------------------------------------|
|-----------------------------------------------------------------------------|
|-----------------------------------------------------------------------------|
|-----------------------------------------------------------------------------|


              ~            ~~~~~~~~~~~~~~~~~~~~~~~~~
|-------------------------------|----------------------|
|-13-12-10-12-8---10-8-7-8------|------------12b13=====|
|--------------------------9----|-11-------------------|
|-------------------------------|----------------------|
|-------------------------------|----------------------|
|-------------------------------|----------------------|


|-0h2h3-0h3h5-0h5h7-0h3h5-0h2h3-0h3h5-0h5h7-0h7h8-0h5h7-0h7h8-0h8h10-0h7h8-|
|--------------------------------------------------------------------------|
|--------------------------------------------------------------------------|
|--------------------------------------------------------------------------|
|--------------------------------------------------------------------------|
|--------------------------------------------------------------------------|

0h8h10-0h10h12-0h8h10-0h7h8---|
------------------------------|
------------------------------|
------------------------------|
------------------------------|
------------------------------|

                                                                               ~~
|---------------------------------------------------/19-15----19-/22-19----22-20----*|
|--------------------------/20-----------------------------17-----------20----------*|
|-------/19--------------------19-17-16----16-17-19---------------------------------*|
|-16-17-----17-16----16-17--------------19------------------------------------------*|
|-----------------19----------------------------------------------------------------*|
|-----------------------------------------------------------------------------------*|

Добавлено: 16.06.2012
Другие материалы по этой песне:

Страница создана 21.02.2012
http://primanota.ru/exodus/44-magnum-opus-chords.htm
Привет, Гость.
Предлагаем пройти революционный курс по гитаре.
Подарок от PrimaNota.Ru, забирай!