PrimaNota.ru - самый крупный в мире бесплатный архив песенных текстов, аккордов, табулатур и нот


Exit Ten - Technically Alive - текст песни, таба, бас-таба, видео

Регистрация Запомнить меня
Войти через:  Facebook Google Twitter Vk Yandex Mail.ru

Exit Ten - Technically Alive - текст песни, таба, бас-таба, видео

Печатать
Просмотров: 147
-------------------------------------------------------------------------------
                             Technically Alive - Exit Ten
-------------------------------------------------------------------------------

Tabbed by:slurms
Email: euan-tk@hotmail.com

Tuning:DADGBE


Intro:Lead Guitar
e|--------------------------------------------|---------------------------------------|--|
B|--------------------------------------------|---------------------------------------|--|
G|-2t5t10tp5--2t5t10tp5--2t5t10tp5--2t5t10tp5-|-2t5t9tp5--2t5t9tp5--2t5t9tp--2t5t9tp5-|--|
D|--------------------------------------------|---------------------------------------|x2|
A|--------------------------------------------|---------------------------------------|--|
D|--------------------------------------------|---------------------------------------|--|




Verse: Lead Guitar
e|---------------------|--|-------------------|--|---------------------|--|---------------------|--|
B|---------------------|--|-------------------|--|---------------------|--|---------------------|--|
G|-2t5t10tp5-2t5t10tp5-|--|-2t5t9tp5-2t5t9tp5-|--|-2t5t14tp5-2t5t14tp5-|--|-2t5t12tp5-2t5t12tp5-|--|
D|---------------------|x2|-------------------|x2|---------------------|x2|---------------------|x2|
A|---------------------|--|-------------------|--|---------------------|--|---------------------|--|
D|---------------------|--|-------------------|--|---------------------|--|---------------------|--|
Verse: Rhythm Guitar (extremely fast picked and muted)
e|------------------------------------------|--|-------------------------------------|--|
B|------------------------------------------|--|-------------------------------------|--|
G|------------------------------------------|--|-------------------------------------|--|
D|-0000--0000--0000--0000--0000--000--------|x2|-8888--8888--8888--8888--8888--888-7-|x2|
A|-0000--0000--0000--0000--0000--000--------|--|-8888--8888--8888--8888--8888--888-7-|--|
D|-0000--0000--0000--0000--0000--000-12\----|--|-8888--8888--8888--8888--8888--888-7-|--|
   ....  ....  ....  ....  ....  ...             ....  etc       





 Pre Chorus: Lead Guitar
e|---------------------------------|
B|---------------------------------|
G|--7---5---7---5--10---9--10---9--|
D|--x---x---x---x---x---x---x---x--|
A|--5---3---5---3---8---7---8---7--|
D|---------------------------------|
Rhythm Guitar
e|---------------------------------|
B|---------------------------------|
G|---------------------------------|
D|-12--10--12--10--12--10--12--10--|
A|-12--10--12--10--12--10--12--10--|
D|-12--10--12--10--12--10--12--10--|




Verse: Lead Guitar
e|---------------------|--|-------------------|--|---------------------|--|---------------------|--|
B|---------------------|--|-------------------|--|---------------------|--|---------------------|--|
G|-2t5t10tp5-2t5t10tp5-|--|-2t5t9tp5-2t5t9tp5-|--|-2t5t14tp5-2t5t14tp5-|--|-2t5t12tp5-2t5t12tp5-|--|
D|---------------------|x2|-------------------|x2|---------------------|x2|---------------------|x2|
A|---------------------|--|-------------------|--|---------------------|--|---------------------|--|
D|---------------------|--|-------------------|--|---------------------|--|---------------------|--|
Verse: Rhythm Guitar (extremely fast picked and muted)
e|------------------------------------------|--|-------------------------------------|--|
B|------------------------------------------|--|-------------------------------------|--|
G|------------------------------------------|--|-------------------------------------|--|
D|-0000--0000--0000--0000--0000--000--------|x2|-8888--8888--8888--8888--8888--888-7-|x2|
A|-0000--0000--0000--0000--0000--000--------|--|-8888--8888--8888--8888--8888--888-7-|--|
D|-0000--0000--0000--0000--0000--000-12\----|--|-8888--8888--8888--8888--8888--888-7-|--|
   ....  ....  ....  ....  ....  ...             ....  etc       




 Pre Chorus: Lead Guitar
e|---------------------------------|
B|---------------------------------|
G|--7---5---7---5--10---9--10---9--|
D|--x---x---x---x---x---x---x---x--|
A|--5---3---5---3---8---7---8---7--|
D|---------------------------------|
Rhythm Guitar
e|---------------------------------|
B|---------------------------------|
G|---------------------------------|
D|-12--10--12--10--12--10--12--10--|
A|-12--10--12--10--12--10--12--10--|
D|-12--10--12--10--12--10--12--10--|



Chorus: Lead Guitar
e|------------------------------------------------|--|
B|------------------------------------------------|--|
G|10-10-10-10-10-10-10-10-10-10-10-10--9--9--9--9-|--|
D|-x--x--x--x--x--x--x--x--x--x--x--x--x--x--x--x-|x2|
A|-8--8--8--8--8--8--8--8--8--8--8--8--7--7--7--7-|--|
D|------------------------------------------------|--|
Chorus: Rhythm Guitar
e|---------------------------------|--|---------------------------------|--|
B|---------------------------------|--|---------------------------------|--|
G|-7-7-7-7-7-7-7-7-7-7-7-7-7-7-7-7-|--|---------------------------------|--|
D|-x-x-x-x-x-x-x-x-x-x-x-x-x-x-x-x-|x2|-8-8-8-8-8-8-8-8-8-8-8-8-8-8-8-8-|x2|
A|-5-5-5-5-5-5-5-5-5-5-5-5-5-5-5-5-|--|-8-8-8-8-8-8-8-8-8-8-8-8-8-8-8-8-|--|
D|-0-0-0-0-0-0-0-0-0-0-0-0-0-0-0-0-|--|-8-8-8-8-8-8-8-8-8-8-8-8-8-8-8-8-|--|






Verse: Lead Guitar
e|---------------------|--|-------------------|--|---------------------|--|---------------------|--|
B|---------------------|--|-------------------|--|---------------------|--|---------------------|--|
G|-2t5t10tp5-2t5t10tp5-|--|-2t5t9tp5-2t5t9tp5-|--|-2t5t14tp5-2t5t14tp5-|--|-2t5t12tp5-2t5t12tp5-|--|
D|---------------------|x2|-------------------|x2|---------------------|x2|---------------------|x2|
A|---------------------|--|-------------------|--|---------------------|--|---------------------|--|
D|---------------------|--|-------------------|--|---------------------|--|---------------------|--|
Verse: Rhythm Guitar (extremely fast picked and muted)
e|------------------------------------------|--|-------------------------------------|--|
B|------------------------------------------|--|-------------------------------------|--|
G|------------------------------------------|--|-------------------------------------|--|
D|-0000--0000--0000--0000--0000--000--------|x2|-8888--8888--8888--8888--8888--888-7-|x2|
A|-0000--0000--0000--0000--0000--000--------|--|-8888--8888--8888--8888--8888--888-7-|--|
D|-0000--0000--0000--0000--0000--000-12\----|--|-8888--8888--8888--8888--8888--888-7-|--|
   ....  ....  ....  ....  ....  ...             ....  etc       






Chorus: Lead Guitar
e|------------------------------------------------|--|
B|------------------------------------------------|--|
G|10-10-10-10-10-10-10-10-10-10-10-10--9--9--9--9-|--|
D|-x--x--x--x--x--x--x--x--x--x--x--x--x--x--x--x-|x2|
A|-8--8--8--8--8--8--8--8--8--8--8--8--7--7--7--7-|--|
D|------------------------------------------------|--|
Chorus: Rhythm Guitar
e|---------------------------------|--|---------------------------------|--|
B|---------------------------------|--|---------------------------------|--|
G|-7-7-7-7-7-7-7-7-7-7-7-7-7-7-7-7-|--|---------------------------------|--|
D|-x-x-x-x-x-x-x-x-x-x-x-x-x-x-x-x-|x2|-8-8-8-8-8-8-8-8-8-8-8-8-8-8-8-8-|x2|
A|-5-5-5-5-5-5-5-5-5-5-5-5-5-5-5-5-|--|-8-8-8-8-8-8-8-8-8-8-8-8-8-8-8-8-|--|
D|-0-0-0-0-0-0-0-0-0-0-0-0-0-0-0-0-|--|-8-8-8-8-8-8-8-8-8-8-8-8-8-8-8-8-|--|







Breakdown Both
e|-----------------------------------|--|-------------------------------|--|
B|-----------------------------------|--|-------------------------------|--|
G|-----------------------------------|--|-------------------------------|--|
D|-----------------------------------|x?|-00--00--00--00--00--12/-------|x2|
A|-----------------------------------|--|-00--00--00--00--00--12/-------|--|
D|-0-0-3p0-5p0-6p0-7p0-8p0-10p0-12p0-|--|-00--00--00--00--00--12/-------|--|
 /\/\/\/\/\/\/\/\/\/\/\/\/\/\/\/\/\/\
Just Generally fuck about with these pull-offs with open d in between each one.







Chorus: Lead Guitar
e|------------------------------------------------|--|
B|------------------------------------------------|--|
G|10-10-10-10-10-10-10-10-10-10-10-10--9--9--9--9-|--|
D|-x--x--x--x--x--x--x--x--x--x--x--x--x--x--x--x-|x2|
A|-8--8--8--8--8--8--8--8--8--8--8--8--7--7--7--7-|--|
D|------------------------------------------------|--|
Chorus: Rhythm Guitar
e|---------------------------------|--|---------------------------------|--|
B|---------------------------------|--|---------------------------------|--|
G|-7-7-7-7-7-7-7-7-7-7-7-7-7-7-7-7-|--|---------------------------------|--|
D|-x-x-x-x-x-x-x-x-x-x-x-x-x-x-x-x-|x2|-8-8-8-8-8-8-8-8-8-8-8-8-8-8-8-8-|x2|
A|-5-5-5-5-5-5-5-5-5-5-5-5-5-5-5-5-|--|-8-8-8-8-8-8-8-8-8-8-8-8-8-8-8-8-|--|
D|-0-0-0-0-0-0-0-0-0-0-0-0-0-0-0-0-|--|-8-8-8-8-8-8-8-8-8-8-8-8-8-8-8-8-|--|




Outro: Lead Guitar
e|---------------------------------|
B|---------------------------------|
G|--7---5---7---5--10---9--10---9--|
D|--x---x---x---x---x---x---x---x--|
A|--5---3---5---3---8---7---8---7--|
D|---------------------------------|
Rhythm Guitar
e|---------------------------------|
B|---------------------------------|
G|---------------------------------|
D|-12--10--12--10--12--10--12--10--|
A|-12--10--12--10--12--10--12--10--|
D|-12--10--12--10--12--10--12--10--|

| .  palm mute
| t  tap
| /  slide up
| \  slide down
| h  hammer-on
| p  pull-off
| ~  vibrato
| +  harmonic
| x  Mute note
===============================================================================
Добавлено: 30.07.2012
Другие материалы по этой песне:

Страница создана 24.02.2012
http://primanota.ru/exit-ten/technically-alive-chords.htm
Привет, Гость.
Предлагаем пройти революционный курс по гитаре.
Подарок от PrimaNota.Ru, забирай!