PrimaNota.ru - самый крупный в мире бесплатный архив песенных текстов, аккордов, табулатур и нот


Exit Ten - Softwatch - текст песни, таба, бас-таба, видео

Регистрация Запомнить меня
Войти через:  Facebook Google Twitter Vk Yandex Mail.ru

Exit Ten - Softwatch - текст песни, таба, бас-таба, видео

Печатать
Просмотров: 144
tuning: drop c

pm-palm mute
/-slide up
\-slide down
h-hammer on
p-pull off
x-mute string
t-tremolo pick

intro

guitar 1
|-----------------------------------------------------------------------|
|-----------------------------------------------------------------------|
|------------------------------------------------------------------0----|
|-0------10-----0------10-----13------12-----15------5------3------1----|
|-0------8------0------8------10------12-----13------5------3------1----|
|-0x24---8x24---0x24---8x24---10x18---12x6---13x24---5x12---3x12---1x12-|

|-----------------------|
|-----------------------|
|-0---0---0---0---0---0-|
|-1---1---1---1---1---1-|
|-1---1---1---1---1---1-|
|-1---1---1---1---1---1-|

guitar 2
|---------------------------------------------------------------------------|
|---------------------------------------------------------------------------|
|-10-----9------12------9------10-----12------14------15------14------15----|
|-x------x------x-------x------x------x-------x-------x-------x-------x-----|
|-8x13---7x11---10x12---7x12---8x13---10x23---12x12---13x60---12x12---13x12-|
|---------------------------------------------------------------------------|

|-----------------------------|
|-----------------------------|
|-15---15---15---15---15---15-|
|-x----x----x----x----x----x--|
|-13---13---13---13---13---13-|
|-----------------------------|

guitar 1
|---------------------------------------|
|---------------------------------------|
|---------------------------------------|
|---------------------------------------| repeat 2 more times
|-0-------------------------------------|
|-0---000---000---0-0-000---000---0-0-0-|
pm    ---   ---   - - ---   ---   - - -

|-----------------------------------|
|-----------------------------------|
|---------------------2-------------|
|-----------------------3-0-3-2-----|
|-0-----------------------------3-0-|
|-0---000---000---0-0---------------|
pm    ---   ---   - -   - - - - - -

guitar 2
|---------------------------------------|
|---------------------------------------|
|---------------------------------------|
|-0-------------------------------------|
|-0-(just let ring until start of verse)
|-0-------------------------------------

verse
|---------------------------------------|
|---------------------------------------|
|---------------------------------------|
|---------------------------------------|
|-0-------------------------------------|
|-0---000---000---0-0-000---000---0-0-0-|
pm    ---   ---   - - ---   ---   - - -

|-----------------------------------|
|-----------------------------------|
|---------------------2-------------| repeat all 3 more times
|-----------------------3-0-3-2-----|
|-0-----------------------------3-0-|
|-0---000---000---0-0---------------|
pm    ---   ---   - -   - - - - - -
                            t                             t
|-----------------------------------------------------------|
|-----------------------------------------------------------|
|-----------------------------------------------------------|
|-0-----0---0---0---0---0---3---0-----0---0---0---0---0---2-|
|-0-----0---0---0---0---0---5---0-----0---0---0---0---0---3-|
|-0-----0---0---0---0---0-------0-----0---0---0---0---0-----|

                            t                             t
|-----------------------------------------------------------|
|-----------------------------------------------------------|
|-----------------------------------------------------------|
|-0-----0---0---0---0---0-------0-----0---0---0---0---0---2-|
|-0-----0---0---0---0---0---5---0-----0---0---0---0---0---3-|
|-0-----0---0---0---0---0-------0-----0---0---0---0---0-----|

                            t                             t
|-----------------------------------------------------------|
|-----------------------------------------------------------|
|-----------------------------------------------------------|
|-----------0---0---0---0---3---0-----0---0---0---0---0---2-|
|-----------0---0---0---0---5---0-----0---0---0---0---0---3-|
|-----------0---0---0---0-------0-----0---0---0---0---0-----|

                            t                             t
|---------------------------------------------------------------|
|---------------------------------------------------------------|
|---------------------------------------------------------------|
|-0-----0---0---0---0---0-------0-----0---0---0---0---0---2---0-|
|-0-----0---0---0---0---0---5---0-----0---0---0---0---0---3---0-|
|-0-----0---0---0---0---0-------0-----0---0---0---0---0-------0-|

chorus
|-------------------------------------------------|
|-------------------------------------------------|
|-2-2-2-2-2-2-2-2-2-2-2-2-2-2-2-2-2-2-2-5-5-5-5-5-|
|-3-3-3-3-3-3-3-3-3-3-3-3-3-3-3-3-3-3-3-3-3-3-3-3-|
|-0-0-0-0-0-0-3-3-3-3-3-3-1-1-1-1-1-1-0-0-0-0-0-0-|
|-0-0-0-0-0-0-3-3-3-3-3-3-------------------------|

|-------------------------------------------------|
|-------------------------------------------------|
|-2-2-2-2-2-2-2-2-2-2-2-2-2-2-2-2-2-2-2-5-5-5-5-5-|
|-3-3-3-3-3-3-3-3-3-3-3-3-3-3-3-3-3-3-3-3-3-3-3-3-|
|-0-0-0-0-0-0-3-3-3-3-3-3-1-1-1-1-1-1-0-0-0-0-0-0-|
|-0-0-0-0-0-0-------------------------------------|

guitar 1
              t  t  t                   t  t  t                t  t  t
|-----------------------------------------------------------------------|
|-----------------------------------------------------------------------|
|-----------------------------------------------------------------------|
|-----7-------10-12-10---10---10---10---10-12-10---8---8---8---10-12-10-|
|-----8------------------10---10---10--------------8---8---8------------|
|-0-------0--------------10---10---10--------------8---8---8------------|
pm-       -

              t  t  t
|----------------------|
|----------------------|
|----------------------|
|-7---7---7---10-12-10-|
|-7---7---7------------|
|-7---7---7------------|

guitar 2
              t  t  t                  t  t  t               t  t  t
|--------------------------------------------------------------------|
|--------------------------------------------------------------------|
|--------------------------------------------------------------------|
|-----7-------7--8--7---10---10---10---7--8--7---8---8---8---7--8--7-|
|-----8-----------------10---10---10-------------8---8---8-----------|
|-0-------0-------------10---10---10-------------8---8---8-----------|
pm-       -

              t  t  t
|---------------------|
|---------------------|
|---------------------|
|-7---7---7---7--8--7-|
|-7---7---7-----------|
|-7---7---7-----------|

both guitars
|-------------------------------------------------|
|-------------------------------------------------|
|-2-2-2-2-2-2-2-2-2-2-2-2-2-2-2-2-2-2-2-5-5-5-5-5-|
|-3-3-3-3-3-3-3-3-3-3-3-3-3-3-3-3-3-3-3-3-3-3-3-3-|
|-0-0-0-0-0-0-3-3-3-3-3-3-1-1-1-1-1-1-0-0-0-0-0-0-|
|-0-0-0-0-0-0-3-3-3-3-3-3-------------------------|

second verse
|-----------------------|
|-----------------------|
|-----------------------|
|-8-------7-------------|
|-8-------7---7---7-7-7-|
|-8-------7---7---7-7-7-|
pm            -   - - -

                            t                             t
|-----------------------------------------------------------|
|-----------------------------------------------------------|
|-----------------------------------------------------------|
|-0-----0---0---0---0---0---3---0-----0---0---0---0---0---2-|
|-0-----0---0---0---0---0---5---0-----0---0---0---0---0---3-|
|-0-----0---0---0---0---0-------0-----0---0---0---0---0-----|

                            t                             t
|-----------------------------------------------------------|
|-----------------------------------------------------------|
|-----------------------------------------------------------|
|-0-----0---0---0---0---0-------0-----0---0---0---0---0---2-|
|-0-----0---0---0---0---0---5---0-----0---0---0---0---0---3-|
|-0-----0---0---0---0---0-------0-----0---0---0---0---0-----|

                            t                             t
|-----------------------------------------------------------|
|-----------------------------------------------------------|
|-----------------------------------------------------------|
|-0-----0---0---0---0---0---3---0-----0---0---0---0---0---2-|
|-0-----0---0---0---0---0---5---0-----0---0---0---0---0---3-|
|-0-----0---0---0---0---0-------0-----0---0---0---0---0-----|

                            t                             t
|-----------------------------------------------------------|
|-----------------------------------------------------------|
|-----------------------------------------------------------|
|-0-----0---0---0---0---0-------0-----0---0---0---0---0---2-|
|-0-----0---0---0---0---0---5---0-----0---0---0---0---0---3-|
|-0-----0---0---0---0---0-------0-----0---0---0---0---0-----|

repeat chorus

bridge
|-----------------------------------------------|
|-----------------------------------------------|
|-------------10--10--10--12--12--12--9---9---9-|
|-8---8---8---8---8---8---8---8---8---8---8---8-|
|-8---8---8---8---8---8---8---8---8---8---8---8-|
|-8---8---8---8---8---8---8---8---8---8---8---8-|

|------------------------------------------------|
|------------------------------------------------|
|------------------------------------------------|
|-7---10--10--10--10--10--10--10--10--10--10--10-| repeat all 2 more times
|-8---8---8---8---8---8---8---8---8---8---8---8--|
|-7---7---7---7---7---7---7---7---7---7---7---7--|

|-----------------------------------------------|
|-----------------------------------------------|
|-------------10--10--10--12--12--12--9---9---9-|
|-8---8---8---8---8---8---8---8---8---8---8---8-|
|-8---8---8---8---8---8---8---8---8---8---8---8-|
|-8---8---8---8---8---8---8---8---8---8---8---8-|

|------------------------|
|------------------------|
|------------------------|
|-7---10--10--10--10--10-|
|-8---8---8---8---8---8--|
|-7---7---7---7---7---7--|

guitar 1
|-----------------------|
|-----------------------|
|-----------------------|
|-----------------------|
|-8---7---5---7---5---3-|
|-8---7---5---7---5---3-|
pm-   -   -   -   -   -

guitar 2
|-------------|
|-------------|
|-109-7-9-7-5-|
|-x-x-x-x-x-x-|
|-8\7\5/7\5\3-
|-------------

guitar 1
|----------------------|
|----------------------|
|----------------------| repeat 2 more times
|-0--------------------|
|-0-------7-----10-----|
|-0---------8-0----8-7-|
pm            -

guitar 2
|--------------|
|--------------|
|--------------|
|-0------------|
|-0-(let ring)-
|-0------------

both guitars
|-----------------------|
|-----------------------|
|-----------------------| repeat 4 more times
|-0-------9------12-----|
|-0-------7-10-0-10-8-7-|
|-0---------8--0----8-7-|

guitar 1
|--------------------------------------------|
|--------------------------------------------|
|--------------------------------------------| repeat 2 more times
|-0---0---0---0---0---0---9---------12-------|
|-0---0---0---0---0---0---7---8-----10---8-7-|
|-0---0---0---0---0---0-------8---0------8-7-|
pm    -   -       -   -           -

guitar 2
|----------------------------------------|
|----------------------------------------|
|----------------------------------------| repeat 2 more times
|-0---0---0---0---0---0------------8-----|
|-0---0---0---0---0---0---10-------------|
|-0---0---0---0---0---0------8---0---8-7-|
pm    -   -       -   -          -

|-----------------------------------------------|
|-----------------------------------------------|
|-----------------------------------------------|
|-0---0---0---0---0---0---0---0---0---0---0---0-|
|-0---0---0---0---0---0---0---0---0---0---0---0-|
|-0---0---0---0---0---0---0---0---0---0---0---0-|
pm    -   -       -   -   -   -   -   -   -   -

(clean tone)
|-----------------------------------------------------------|
|-----------------------------------------------------------|
|-2-------2-------2-------5-------2-------2-------2-------5-|
|-3-------3-------3-------3-------3-------3-------3-------3-|
|-x-------3-------1-------0-------x-------3-------1-------0-|
|-0-------3-----------------------0-------3-----------------|

repeat chorus

outro
|------------------------------------------------|
|------------------------------------------------|
|------------------------------------------------| repeat 3 more times
|-0---0---0---0---0---0---9-----------12---------|
|-0---0---0---0---0---0---7---8---0---10---8---7-|
|-0---0---0---0---0---0-------8---0--------8---7-|

|---
|---
|---
|-0-
|-0-
|-0- end
Добавлено: 21.03.2012
Другие материалы по этой песне:

Страница создана 21.02.2012
http://primanota.ru/exit-ten/softwatch-chords.htm
Привет, Гость.
Предлагаем пройти революционный курс по гитаре.
Подарок от PrimaNota.Ru, забирай!