PrimaNota.ru - самый крупный в мире бесплатный архив песенных текстов, аккордов, табулатур и нот


Exit Ten - Resume Ignore - текст песни, таба, видео

Регистрация Запомнить меня
Войти через:  Facebook Google Twitter Vk Yandex Mail.ru

Exit Ten - Resume Ignore - текст песни, таба, видео

Печатать
Просмотров: 153
tuning guitar 1-drop c
       guitar 2-drop c
d|-------|
a|-------|
f|-------|
c|-------|
g|-------|
c|-------|

pm-palm mute
/-slide up
\-slide dowm
h-hammer on
p-pull off
x-mute string
t-tremolo pick

intro
guitar 1
   t   t   t   t   t   t   t   t   t   t   t   t   t   t   t   t   t   t
|-20--19--17--19--17--15--17--15--14--15------14--12--14--15--17--15--14-|
|-----------------------------------------12-----------------------------|
|------------------------------------------------------------------------|
|------------------------------------------------------------------------|
|------------------------------------------------------------------------|
|------------------------------------------------------------------------|
play 4 times

guitar 2
|-----------------------------------------------------------|
|-----------------------------------------------------------|
|-----------------------------------------------------------|
|-----------------------------------------------------------|
|-2---2---222222---2---2---2---2222---22---2--2---2222---22-|
|-2---2---222222---2---2---2---2222---22---2--2---2222---22-|
pm-   -   ------   -   -   -   ----   --   -  -   ----   --
play 4 times

|-------------------------------------------------------|
|-------------0---------------------------0-------------|
|-------------0---------------------------0-------------|
|-2---2---2---2-----------5---2---2---2---2-----------5-|
|-2---2---2---------------5---2---2---2---------------5-|
|-2---2---2---------------5---2---2---2---------------5-|

|--------------------------------------------------------|
|-------------7-----------8---------------7--------------|
|-------------x-----------x---------------x--------------|
|-0---0---0---4-----------5---0---0---0---4-----------7\-|
|-0---0---0---0---------------0---0---0---0-----------7\-|
|-0---0---0---0---------------0---0---0---0-----------7\-|

verse
|----------------------------------------------------------------------------|
|----------------------------------------------------------------------------|
|----------------------------------------------------------------------------|
|-2---2---2---2-------------------------------------2------------------------|
|-2---2---2---2----2222-----2---0---2---2---2---2---2-----2222-----2---0---2-|
|-2---2---2---2----2222-----2---0---5---2---2---2---2-----2222-----2---0---5-|
pm                 ----     -   -       -   -   -         ----     -   -

|-------------------------------------------|
|-------------------------------------------|
|-------------------------------------------|
|------------0------------------------------|
|----0---0---0-------9/10---9---7-9---7---5-|
|----0---0---0------------------------------|
pm   -   -

guitar 1
|------------------------------------------|
|------------------------------------------|
|------------------------------------------|
|-0---0---0---0----------------------------|
|-0---0---0---0------9/10---9---7-9--7---5-|
|-0---0---0---0----------------------------|

guitar 2
|------------------------------------------|
|------------------------------------------|
|------------------------------------------|
|-0---0---0---0------9------7---5-7--5---4-|
|-0---0---0---0----------------------------|
|-0---0---0---0----------------------------|

|----------------------------------------------------------------------------|
|----------------------------------------------------------------------------|
|----------------------------------------------------------------------------|
|-2---2---2---2-------------------------------------2------------------------|
|-2---2---2---2----2222-----2---0---2---2---2---2---2-----2222-----2---0---2-|
|-2---2---2---2----2222-----2---0---5---2---2---2---2-----2222-----2---0---5-|
pm                 ----     -   -       -   -   -         ----     -   -

|-------------------------------------------|
|-------------------------------------------|
|-------------------------------------------|
|------------0------------------------------|
|----0---0---0-------9/10---9---7-9---7---5-|
|----0---0---0------------------------------|
pm   -   -

|------------------------------------------|
|------------------------------------------|
|------------------------------------------|
|-0---0---0---0------9------7---5-7--5---4-|
|-0---0---0---0------9------7---5-7--5---4-|
|-0---0---0---0------9------7---5-7--5---4-|

pre-chorus
guitar 1
|--------------------------------------------------------------------------|
|--------------------------------------------------------------------------|
|--------------------------------------------12--11------------------------|
|-----7-9-9-10-----7-9-9-10--------------12----12--12-12-10-10-10-10-9-9-9-|
|---7------------7------------9-10-----10--10------------------------------|
|-7------------7------------9--------10------------------------------------|

guitar 2

|---------------------------------------|
|---------------------------------------|
|---------------------------------------|
|-7-7-7-7-7-7-7-7-7-7-7-7-9-9-9-9-10----|
|-7-7-7-7-7-7-7-7-7-7-7-7-9-9-9-9-10----|
|-7-7-7-7-7-7-7-7-7-7-7-7-9-9-9-9-10x16-|

guitar 1
|----------------------------------------------------------------------------|
|----------------------------------------------------------------------------|
|--------------------------------------------12--11--12\11-11-11-11/14-14-14-|
|-----7-9-9-10-----7-9-9-10--------------12----12-----x--x--x--x--x--x--x--x-|
|---7------------7------------9-10-----10--10--------10\-9--9--9--9/12-12-12-|
|-7------------7------------9--------10--------------------------------------|

guitar 2

|---------------------------------------|
|---------------------------------------|
|---------------------------------------|
|-7-7-7-7-7-7-7-7-7-7-7-7-9-9-9-9-10----|
|-7-7-7-7-7-7-7-7-7-7-7-7-9-9-9-9-10----|
|-7-7-7-7-7-7-7-7-7-7-7-7-9-9-9-9-10x16-|

chorus
guitar 1
|----------------------------------------|
|----------------------------------------|
|-9---9---999999---9---9---9---9999---99-|
|-x---x---xxxxxx---x---x---x---xxxx---xx-|
|-7---7---777777---7---7---7---7777---77-|
|----------------------------------------|

|----------------------------------------|
|----------------------------------------|
|-9---9---999999---9---9---9---9999---99-|
|-x---x---xxxxxx---x---x---x---xxxx---xx-|
|-7---7---777777---7---7---7---7777---77-|
|----------------------------------------|

|----------------------------------------|
|----------------------------------------|
|-7---7---777777---7---7---7---7777---77-|
|-x---x---xxxxxx---x---x---x---xxxx---xx-|
|-5---5---555555---5---5---5---5555---55-|
|----------------------------------------|

|----------------------------------------|
|----------------------------------------|
|-7---7---777777---7---7---7---7777---77-|
|-x---x---xxxxxx---x---x---x---xxxx---xx-|
|-5---5---555555---5---5---5---5555---55-|
|----------------------------------------|
play 2 times

guitar 2
|----------------------------------------|
|----------------------------------------|
|-9---9---999999---9---9---9---9999---99-|
|-x---x---xxxxxx---x---x---x---xxxx---xx-|
|-7---7---777777---7---7---7---7777---77-|
|----------------------------------------|

|----------------------------------------------|
|----------------------------------------------|
|-9---9---999999---9---9---9---12121212---1212-|
|-x---x---xxxxxx---x---x---x----x-x-x-x----x-x-|
|-7---7---777777---7---7---7---10101010---1010-|
|----------------------------------------------|

|-------------------------------------------------|
|-------------------------------------------------|
|11--11--111111111111--11--11--11--11111111--1111-|
|-x---x---x-x-x-x-x-x---x---x---x---x-x-x-x---x-x-|
|-9---9---9-9-9-9-9-9---9---9---9---9-9-9-9---9-9-|
|-------------------------------------------------|

|---------------------------------------------------|
|---------------------------------------------------|
|11--11--111111111111--11--11--11---12121212---1212-|
|-x---x---x-x-x-x-x-x---x---x---x----x-x-x-x----x-x-|
|-9---9---9-9-9-9-9-9---9---9---9---10101010---1010-|
|---------------------------------------------------|
play 2 times

repeat verse, pre-chorus and chorus again.

bridge
guitar 1
|--------------------------------------------------------|
|--------------------------------------------------------|
|-----------------------------------------------------11-|
|---------7---9---------------------10---12-----------12-|
|-----7--------------------------10----------------------|
|-7-----------------------9---10-------------------------|

guitar 2
|------------15--------------------------19------20-----|
|-------------------------------------------------------|
|-------------------------------------------------------|
|-------------------------------------------------------|
|-------------------------------------------------------|
|-------------------------------------------------------|

guitar 1
|--------------------------------------------------------|
|--------------------------------------------------------|
|-----------------------------------------------------11-|
|---------7---9---------------------10---12-----------12-|
|-----7--------------------------10----------------------|
|-7-----------------------9---10-------------------------|

guitar 2
|----------------------------------------19------20-----|
|------------12-----------------------------------------|
|-------------------------------------------------------|
|-------------------------------------------------------|
|-------------------------------------------------------|
|-------------------------------------------------------|

guitar 1
|--------------------------------------|
|--------------------------------------|
|------------------------------12---11-|
|-----7h9-9h10-----7h9-----12----------|
|---7------------7-------10--10--------|
|-7------------7-------10--------------|
play 3 times

guitar 2
|-----7---7--------7-------10--10----------|
|---------------------------------------13-|
|---9------------9-------12-----------12---|
|-7------------7-------10-----------10-----|
|------------------------------------------|
|------------------------------------------|
play 3 times

guitar 1
|-------------------------------------------------|
|-------------------------------------------------|
|------------------------------12---11---11-11-11-|
|-----7h9-9h10-----7h9-----12---------------------|
|---7------------7-------10--10-------------------|
|-7------------7-------10-------------------------|

guitar 2
|-----7---7--------7-------10--10--------------|
|---------------------------------------13--13-|
|---9------------9-------12-----------12-------|
|-7------------7-------10-----------10---------|
|----------------------------------------------|
|----------------------------------------------|

|-----------------------------------------------------------|
|-----------------------------------------------------------|
|-----------------------------------------------------------|
|-2---2---222222---2---2---2---2222---22---2--2---2222---22-|
|-2---2---222222---2---2---2---2222---22---2--2---2222---22-|
|-2---2---222222---2---2---2---2222---22---2--2---2222---22-|

|-----------------------------------------------------------|
|-----------------------------------------------------------|
|-----------------------------------------------------------|
|-2---2---222222---2---2---2---2222---22---2--2---2222---22-|
|-2---2---222222---2---2---2---2222---22---2--2---2222---22-|
|-2---2---222222---2---2---2---2222---22---2--2---2222---22-|

repeat chorus

outro
|-----------------------------------------------------------|
|-----------------------------------------------------------|
|-----------------------------------------------------------|
|-----------------------------------------------------------|
|-2---2---222222---2---2---2---2222---22---2--2---2222---22-|
|-2---2---222222---2---2---2---2222---22---2--2---2222---22-|
pm-   -   ------   -   -   -   ----   --   -  -   ----   --

|-----------------------------------------------------------|
|-----------------------------------------------------------|
|-----------------------------------------------------------|
|-----------------------------------------------------------|
|-2---2---222222---2---2---2---2222---22---2--2---2222---22-|
|-2---2---222222---2---2---2---2222---22---2--2---2222---22-|
pm-   -   ------   -   -   -   ----   --   -  -   ----   --

|-----------------------------------------------------------|
|-----------------------------------------------------------|
|-----------------------------------------------------------|
|-----------------------------------------------------------|
|-2---2---222222---2---2---2---2222---22---2--2---2222---22-|
|-2---2---222222---2---2---2---2222---22---2--2---2222---22-|
pm-   -   ------   -   -   -   ----   --   -  -   ----   --

|-----------------------------------------------------------|
|-----------------------------------------------------------|
|-----------------------------------------------------------|
|-----------------------------------------------------------|
|-2---2---222222---2---2---2---2222---22---2--2---2222---22-|
|-2---2---222222---2---2---2---2222---22---2--2---2222---22-|
pm-   -   ------   -   -   -   ----   --   -  -   ----   --

|---------------|
|-------------0-|
|-------------0-|
|-2---2---2---2-|
|-2---2---2-----|
|-2---2---2-----|

some bits might be slightly wrong but i've tried to
get it as accurate as possible. anyway, enjoy.
Добавлено: 13.07.2012
Другие материалы по этой песне:
  • Аккорды и текст

Страница создана 13.07.2012
http://primanota.ru/exit-ten/resume-ignore-chords.htm
Привет, Гость.
Предлагаем пройти революционный курс по гитаре.
Подарок от PrimaNota.Ru, забирай!