PrimaNota.ru - самый крупный в мире бесплатный архив песенных текстов, аккордов, табулатур и нот


Exit Ten - Piece By Piece By Piece - таба, видео

Регистрация Запомнить меня
Войти через:  Facebook Google Twitter Vk Yandex Mail.ru

Exit Ten - Piece By Piece By Piece - таба, видео

Печатать
Просмотров: 134
Уроки эстрадного вокала в Санкт-Петербурге
-------------------------------------------------------------------------------
                             Piece By Piece By Piece
-------------------------------------------------------------------------------
Tabbed by: Chris Fletcher
Email: Topher_666@hotmail.co.uk

This is my second Exit Ten Tab.
This song I know and have worked out a lot more of in comparsion to my other Exit Ten
but there is still some bits missing. Its about 80% complete!


Tuning:CGCFAD
Intro:
D|---------------------------------------------------------------------------|
A|---------------------------------------------------------------------------|
F|---------------------------------------------------------------------------|
C|-----------------------------------------------------------repeated--------|
G|---------------------------------------------------------------------------|
C|-11b-0-0-11b-0-11b-0-0-11b-0-10b-0-0-10b-0-10b-0-0-10b-0-------------------|
Then:
D|---------------------------------------------------------------------------|
A|---------------------------------------------------------------------------|
F|--10----------10-----------9----------9------------------------------------|
C|------------------------------------------------------repeated-------------|
G|--8-----------8------------7----------7------------------------------------|
C|----0-0-11b-0----0-0-11b-0--0-0-10b-0--0-0-10b-0---------------------------|


D|---------------------------------------------------------------------------|
A|---------------------------------------------------------------------------|
F|---------------------------------------------------------------------------|
C|-11-11-11-11-xx-11-11-11-11------------------------------------------------|
G|-11-11-11-11-xx-11-11-11-11------------------------------------------------|
C|-11-11-11-11-xx-11-11-11-11------------------------------------------------|

Verse:
D|---------------------------------------------------------------------------|
A|---------------------------------------------------------------------------|
F|---------------------------------------------------------------------------|
C|---------------------------------------------------------------------------|
G|-------------------------3^------------------------------------------------|
C|-0000-0000-0000-0000-x3--------0000-0000-0000-0000-x3----slidedown---------|

Pre-Chorus:
D|---------------------------------------------------------------------------|
A|---------------------------------------------------------------------------|
F|---------0~-----------0~-----------------------0-----------0~-----10~------|
C|-----7-8~---------7-8~------------x3-------7-8~--------7-8~---------8~-----|
G|-0--12~-----000--12~-----00000000------0--12~----000--12~------------12~---|
C|-0----------000----------00000000------0---------000-----------------------|

Verse
Pre-Chorus

Chorus:
D|---------------------------------------------------------------------------|
A|---------------------------------------------------------------------------|
F|-------9~---------9~--------------10~--------10----------------------------|
C|-----7~---------7~---------------8~---------8~-----------------------------|
G|-0-5~---------5~-----0000000-0-12~--------12~---0000000--------------------|
C|-0--------000--------0000000-0--------000-------0000000--------------------|

D|---------------------------------------------------------------------------|
A|---------------------------------------------------------------------------|
F|------10~--------10~--------------9~--------10~----------------------------|
C|-----8~---------8~--------------10~-------10~------------------------------|
G|-0-10~----000-10~----0000000-0-8~--------8~--------------------------------|
C|-0--------000--------0000000-0-------000-------*pickslide*-----------------|

1st Interlude - No guitar
Pre-chorus
Chorus

At this point I'm not sure what the 1st guitar does, but the 2nd guitar plays these notes:
D|---------------------------------------------------------------------------|
A|---------------------------------------------------------------------------|
F|---------------------------------------------------------------------------|
C|-0---8--10-11--------------------------------------------------------------|
G|-0---8--10-11--------------------------------------------------------------|
C|-0---8--10-11--------------------------------------------------------------|
You'll be able to work out the picking I'm sure.. there is also a pitch harmonic
this is on the 3rd fret of the G string (A string in standard)

MISSING BITS!!!!!

The 2nd interlude I haven't worked out. But following this there is this:

D|-----------------------------------------------------------------------------|
A|-----------------------------------------------------------------------------|
F|-----------------------------------------------------------------------------|
C|-------------------------------------------0~--000~--------------000~--------|
G|-------------------------------------------0~--000~-0-0-0-0-0-0--000~--------|
C|0--000---00000000-0--000--0000000000000000-0~--000~-0-0-0-0-0-0--000~--------|
                                                      \----3-------------------|

Pre-Chorus
Chorus

Ending:
D|---------------------------------------------------------------------------|
A|---------------------------------------------------------------------------|
F|---------------------------------------------------------------------------|
C|---------------------------------------------------------------------------|
G|---------------------------------------------------------------------------|
C|0000--0000--0000--0000-----------------------------------------------------|

Obviously, as you can see, this is definatly un-finished, but If I work anymore out, I 
add to it.
Please email or add me if you wish to contribute to this, and I will thank you for 
if so!
topher_666@hotmail.co.uk


| /  slide up
| \  slide down
| h  hammer-on
| p  pull-off
| ~  vibrato
| +  harmonic
| x  Mute note
| ^  Pinch Harmonic
===============================================================================
Добавлено: 12.04.2012
Другие материалы по этой песне:
  • Аккорды и текст

Страница создана 12.04.2012
http://primanota.ru/exit-ten/piece-by-piece-by-piece-chords.htm
Привет, Гость.
Предлагаем пройти революционный курс по гитаре.
Подарок от PrimaNota.Ru, забирай!