PrimaNota.ru - самый крупный в мире бесплатный архив песенных текстов, аккордов, табулатур и нот


Exit Ten - Perish In The Flames - текст песни, таба, видео

Регистрация Запомнить меня
Войти через:  Facebook Google Twitter Vk Yandex Mail.ru

Exit Ten - Perish In The Flames - текст песни, таба, видео

Печатать
Просмотров: 135
Уроки эстрадного вокала в Санкт-Петербурге
-------------------------------------------------------------------------------
                             Perish In The Flames - Exit Ten
-------------------------------------------------------------------------------
Tabbed by: Chris Fletcher
Email: Topher_666@hotmail.co.uk

Tuning: Drop C
First things first, this is the version of the song from the album Remember The Day, not 
version they posted on their myspace for a while, so that should clear up any 
there.
Okay, so this is yet another Exit Ten tab, and again, it's not perfect, but it gives you 
rough idea of the song.

Note: The intro guitar has a delay effect and it's not a repeat of notes.

Intro/Verse: (let notes ring)
Guitar 1:
D|---------------------------------------------------------------------------|
A|----1p0-----1p0------1p0------1p0-------1-0--1-------1-0-1-----------------|
F|---4-------4--------4--------4----------------2-----------2----------------|
C|--2-------2--------2--------2----------2-------4----2------4---------------|
G|-0-------0-----------------------------------------------------------------|
C|-----------------3--------0----------3-------------3-----------------------|

The second guitar comes in at 0:28 and is hard to hear but I think it plays this twice:

D|-121212121212-1010101010101010-121212121212-8-8-8-8-8-8-8-8-7-7-7-7-8-7-7-7-7-7-7-7-5-5-5-5|
A|-------------------------------------------------------------------------------------------|
F|-9-9-9-9-9-9--7-7-7-7-7-7-7-7--9-9-9-9-9-9--5-5-5-5-5-5-5-5-4-4-4-4-5-4-4-4-4-4-4-4-2-2-2-2|
C|-------------------------------------------------------------------------------------------|
G|-------------------------------------------------------------------------------------------|
C|-------------------------------------------------------------------------------------------|


Interlude/First Chorus:
Guitar 1:
D|------------------12-----13------8\7---------------------------------------|
A|---------------------------------------------------------------------------|
F|-9----------------9------10------5\4---------------------------------------|
C|-7--------0----------------------------------------------------------------|
G|-7--------0----------------------------------------------------------------|
C|-7--------0----------------------------------------------------------------|

Verse 2:
Second Verse is exactly the same for guitar 1 but guitar 2 plays this chord with 
strumming all the way through from 1:49 till 2:14:
Guitar 2:
D|-12------|
A|---------|
F|-9-------|
C|---------|
G|---------|
C|---------|

Chorus 2
Guitar 1: X2
D|-12-------13------8\77777---------------------------------|
A|-----X36------X6------------------------------------------|
F|-9--------10------5\44444---------------------------------|
C|----------------------------------------------------------|
G|----------------------------------------------------------|
C|----------------------------------------------------------|

Guitar 2: X2
D|--------------------------------------------------------------------------------------------------|
A|--------------------------6-6-6-6-----6-6-6-6-6-6-5-5-5-5-----5-5-5-5-5-5-6-6-6-6-6-6-------------|
F|-9-9-9-9-----9-9-9-9-9-9--5-5-5-5-----5-5-5-5-5-5-5-5-5-5-----5-5-5-5-5-5-5-5-5-5-5-5-7-7-7-7-7-7-|
C|-10101010----101010101010-3-3-3-3-----3-3-3-3-3-3-3-3-3-3-----3-3-3-3-3-3-3-3-3-3-3-3-9-9-9-9-9-9-|
G|-7-7-7-7-7-7-7-7-7-7-7-7--3-3-3-3-3-3-3-3-3-3-3-3-0-0-0-0-0-0-0-0-0-0-0-0-3-3-3-3-3-3-5-5-5-5-5-5-|
C|-7-7-7-7-7-7-7-7-7-7-7-7--3-3-3-3-3-3-3-3-3-3-3-3-0-0-0-0-0-0-0-0-0-0-0-0-3-3-3-3-3-3-------------|
           Pm-|                     PM-|                    Pm-|

Breakdown:
D|------------------------------------------------------------------------------------------------|
A|-----------0-----------0---------0-----------0-------0---0----------0------------------------0--|
F|-----------4-----------4---------4-----------4-------4---4----------4------------------------4--|
C|-----------5-----------5---------5-----------5-------5---5----------5--0-0-0-0-0-0-----------5--|
G|-3-3-3-333-3-3-3-3-333-3-3-3-3-3-3-3-3-3-333-3-3-3-3-3-3-3-3-3-3-33-3--0-0-0-0-0-0-3-3-3-333-3--|
C|-3-3-3-333-3-3-3-3-333-3-3-3-3-3-3-3-3-3-333-3-3-3-3-3-3-3-3-3-3-33-3--0-0-0-0-0-0-3-3-3-333-3--|

Interlude:
D|-------------------------------------------------------------------------|
A|-------------------------------------------------------------------------|
F|-7-7-7-7-7-5-5-4---------------------------------------------------------|
C|-------------------------------------------------------------------------|
G|-5-5-5-5-5-3-3-2---------------------------------------------------------|
C|-------------------------------------------------------------------------|

Chorus 3:
Exactly the same as chorus 2!

Ending:
Guitar 2 continue's playing chorus chords but with a clean effect until the last 2 
which are played with distortion.


Any Corrections please Email me, or post a comment!

| /  slide up
| \  slide down
| h  hammer-on
| p  pull-off
| ~  vibrato
| +  harmonic
| x  Mute note
===============================================================================
Добавлено: 30.06.2012
Другие материалы по этой песне:
  • Аккорды и текст

Страница создана 30.06.2012
http://primanota.ru/exit-ten/perish-in-the-flames-chords.htm
Привет, Гость.
Предлагаем пройти революционный курс по гитаре.
Подарок от PrimaNota.Ru, забирай!