PrimaNota.ru - самый крупный в мире бесплатный архив песенных текстов, аккордов, табулатур и нот


Exit Ten - Path To Take - таба, видео

Регистрация Запомнить меня
Войти через:  Facebook Google Twitter Vk Yandex Mail.ru

Exit Ten - Path To Take - таба, видео

Печатать
Просмотров: 149
Tuning:CGCFAD

D|-----------------------------------------------------------------|
A|-----------------------------------------------------------------|
F|-----------------------------------------------------------------|
C|-44--------------44--------------00--------------00--------------|
G|-44--------------44--------------00--------------00--------------|
C|-44--------------44--------------00--------------00--------------|
Fly                Crash and burn  Eventual fade is none of my concern
Lie                Hurt yourself   I won't degrade my soul by hating you
D|-------------------------------------------------------------|
A|-------------------------------------------------------------|
F|---6---------------6---------------7---------------6-------6-|
C|---7---------------6---------------7---------------7-------6-|
G|--4---------------4---------------0---------------0-------0--|
C|-4---------------4---------------0---------------0-------0---|


I                  will not permit influence on how I stand how I sit
Narrow             mindedness       Flippant insults thrown about in fear
D|-------------------------------------------------------------------------------------|
A|-------------------------------------------------------------------------------------|
F|-------------------------------------------------------------------------------------|
C|-4-44-44-44-44-4-4/6-66666-66-66666/77777777777777/(12)121212121212\(11)111111111111-|
G|-------------------------------------------------------------------------------------|
C|-------------------------------------------------------------------------------------|
And you and I realise that I'll be oming back and I'll be showing you what I mean
And I will be safe in this with you and I will set out a path to take
(chorus)
D|--------------------------------------------------------------------------------------|
A|--------------------------------------------------------------------------------------|
F|-6--6666----6--6-6--6--6--6666----6--6-6--6-7--7777----7--7-7--7-6--6666----6--6-6--6-|
C|-7--7777----7--7-7--7--6--6666----6--6-6--6-7--7777----7--7-7--7-7--7777----6--6-6--6-|
G|-4--4444----4--4-4--4--4--4444----4--4-4--4-0--0000----0--0-0--0-0--0000----0--0-0--0-|
C|-4--4444----4--4-4--4--4--4444----4--4-4--4-0--0000----0--0-0--0-0--0000----0--0-0--0-|

Unfortunatly that's all I can tab for certain at the moment. It is the rhythm guitar for 
whole song and it is 100% perfect and if it's not then god damn; I will eat my G string
Добавлено: 17.06.2012
Другие материалы по этой песне:
  • Аккорды и текст

Страница создана 17.06.2012
http://primanota.ru/exit-ten/path-to-take-chords.htm
Привет, Гость.
Предлагаем пройти революционный курс по гитаре.
Подарок от PrimaNota.Ru, забирай!