PrimaNota.ru - самый крупный в мире бесплатный архив песенных текстов, аккордов, табулатур и нот


Exit Ten - My Great Rebellion - текст песни, таба, видео

Регистрация Запомнить меня
Войти через:  Facebook Google Twitter Vk Yandex Mail.ru

Exit Ten - My Great Rebellion - текст песни, таба, видео

Печатать
Просмотров: 97
Tuning:CGCFAD

*Note "." represents palm muting*

[00:00]
D|-------------------------------------------|
A|-------------------------------------------|
F|-------------------------------------------|
C|---------------------------------------7-0-|
G|---------8h10p8-----------8h10p8-------7-0-|
C|-0---8h10------8h10p0-8h10------8h10p0-7-0-|


[00:18]
D|----------------------------------------------------------------------------------|
A|----------------------------------------------------------------------------------|
F|----------------------------------------------------------------------------------|
C|---------------------------------------------------------8-88-888(10)-1010-101010-|
G|------5-3h5-8-10-7------5-3h5-8-10-7------5-3h5-8-10-7---8-88-888(10)-1010-101010-|
C|-0-----0---0-0--0--870---0---0-0--0--870---0---0-0--0--878-88-888(10)-1010-101010-|
         .   . .  .        .   . .  .        .   . .  .

[00:37] (This riff comes in over the exsisting riff which is [00:18])
D|----------------------------------------------------------------|
A|----------------------------------------------------------------|
F|----------------------------------------------------------------|
C|----------------------------------------------------------------|
G|------8-7h8-13-11-10------8-7h8-12-13-10-870--8-7h8-12-13-12----|
C|-0-----0---0--0--0---870---0---0--0--0---------0---0--0--0---87-|
         .   .  .  .         .   .  .  .         .   .  .  .

[01:07]
D|--------------------------------------------------|
A|--------------------------------------------------|
F|---------------------------------------9-9---1010-|
C|-0--0-00-----3--3-33-----4--4-44-----00----00-----|
G|-0--0-00-----3--3-33-----4--4-44-----007-7-008-8--|
C|-0--0-00-----3--3-33-----4--4-44-----00----00-----|
                                       ..    ..

[02:50]
D|---------------------------------------------8h10-8h10-8h10-8h10-10h12-10h12-10h12-10h12-|
A|-8h10-8h10-8h10-8h10-10h11-10h11-10h11-10h11---------------------------------------------|
F|-----------------------------------------------------------------------------------------|
C|-----------------------------------------------------------------------------------------|
G|-----------------------------------------------------------------------------------------|
C|-----------------------------------------------------------------------------------------|

[02:57]
D|-------------------------------------------|
A|-------------------------------------------|
F|-------------------------------------------|
C|-0-0-0-0------00-00----8888888------88--83-|
G|-0-0-0-0------00-00----8888888------88--83-|
C|-0-0-0-0------00-00----8888888------88--83-|
   . . .        .. .     ......       .

Hope this works out for you
Добавлено: 09.06.2012
Другие материалы по этой песне:
  • Аккорды и текст

Страница создана 09.06.2012
http://primanota.ru/exit-ten/my-great-rebellion-chords.htm
Привет, Гость.
Предлагаем пройти революционный курс по гитаре.
Подарок от PrimaNota.Ru, забирай!