PrimaNota.ru - самый крупный в мире бесплатный архив песенных текстов, аккордов, табулатур и нот


Exit Ten - Fine Night - текст песни, таба, бас-таба, видео

Регистрация Запомнить меня
Войти через:  Facebook Google Twitter Vk Yandex Mail.ru

Exit Ten - Fine Night - текст песни, таба, бас-таба, видео

Печатать
Просмотров: 112
tuning-drop c
d|------|
a|------|
f|------|
c|------|
g|------|
c|------|

pm-palm mute
/-slide up
\-slide down
b-bend
~-vibro
h-hammer on
p-pull off
x-mute string

intro
|-----------------------------------------------------------------------|
|-----------------------------------------------------------------------|
|-14-14-14-------14-14-14-------14-14-----14/15-15-------14/15-15-------|
|-12-12-12-------12-12-12-------12-12------x--x--x--------x--x--x-------|
|-13-13-13-------13-13-13-------13-13-----12/13-13-------12/13-13-------|
|----------0-0-0----------0-0-0-------0-0----------0-0-0----------0-0-0-|
pm         - - -          - - -       - -          - - -          - - -

|----------------------------------------------------|
|----------------------------------------------------|
|-19-19-19---14-14-14-------14-14-14-------14-14-----|
|--x--x--x---12-12-12-------12-12-12-------12-12-----|
|-17-17-17---13-13-13-------13-13-13-------13-13-----|
|----------0----------0-0-0----------0-0-0-------0-0-|
pm         -          - - -          - - -       - -

guitar 1
|------------------------------------------|
|------------------------------------------|
|-14/15-15-------14/15-15-------19-19-19---|
|--x--x--x--------x--x--x--------x--x--x---|
|-12/13-13-------12/13-13-------17-17-17---|
|----------0-0-0----------0-0-0----------0-|

guitar 2
|------------------------------------------|
|------------------------------------------|
|-17/19-19-------17/19-19-------22-22-22---|
|--x--x--x--------x--x--x--------x--x--x---|
|-15/17-17-------15/17-17-------20-20-20---|
|----------0-0-0----------0-0-0----------0-|

repeat once more

verse
guitar 1 (clean)
|-----------------------------------------------------------------------|
|---------15--------------15--------------------------------------------|
|-----------14--14----------14--14-------14---14-----14-12---15---15-14-|
|---12--12----12----12--12----12--15------------------------------------|
|-13--13----------13--13------------------------------------------------|
|-----------------------------------------------------------------------|
play 4 times

guitar 2 (clean)
|----------------------------------------------------------------------|
|----------------------------------------------------------------------|
|----------------------------------------------------------------------|
|10-----------------------17------15-----------------14----------------|
|-8-----------------------13------12-----------------10----------------|
|----------------------------------------------------------------------|
play 4 times

pre-chorus
|-------------------------------------------------------------------|
|---------------------------------------------------------------22~-|
|-------------------------------------------------------------------|
|-------------------------------------------------------------------|
|-0-0-0-0-----0-0-0-----0-0-0-----0-0-----0-0-0-----0-0-0---0-0-----|
|-0-0-0-0-----0-0-0-----0-0-0-----0-0-----0-0-0-----0-0-0---0-0-----|
pm- - - -     - - -     - - -     - -     - - -     - - -   - -

|-----------------------------------------------|
|-----------------------------------------------|
|-----------------------------------------------|
|-----------------------------------------------|
|-0-0-0-----0-0-0-----0-0-----0-0-0-----0-0-0-0-|
|-0-0-0-----0-0-0-----0-0-----0-0-0-----0-0-0-0-|
pm- - -     - - -     - -     - - -     - - - -

chorus
|------------------------------------------------------------------|
|------------------------------------------------------------------|
|------------------------------------------------------------------|
|-7/8-8-8-8-8-8-8-3-3-3-3-3-3-3-3-3/5-5-5-5-5-5--------------------|
|-7/8-8-8-8-8-8-8-3-3-3-3-3-3-3-3-3/5-5-5-5-5-5--------------------|
|-7/8-8-8-8-8-8-8-3-3-3-3-3-3-3-3-3/5-5-5-5-5-5-0-1bp0-0-3---5---7-|
play 4 times                                  pm-      -

guitar 2 (comes in half-way through chorus)
|--------------------------------------------------------------------------|
|--------------------------------------------------------------------------|
|-14/15-15-15-15-15-15-15-10-10-10-10-10-10-10-10-10/12-12-12-12-12-12-12--|
|--x--x--x--x--x--x--x--x-x-x-x-x-x-x-x-x-x--x--x--x--x--x--x--x--x--x--x--|
|-12/13-13-13-13-13-13-13--8--8--8--8--8--8--8--8--8/10-10-10-10-10-10-10--|
|--------------------------------------------------------------------------|

|-------------------------|
|-------------------------|
|-19\17-17-17-17\15-15-15-|
|--x--x--x--x--x--x--x--x-|
|-17\15-15-15-15\13-13-13-|
|-------------------------|

|--------------------------------------------------------------------------|
|--------------------------------------------------------------------------|
|-14/15-15-17-15-15-15-15-10-10-10-12-10-10-10-10-10/12-12-12-12-12-12-12--|
|--x--x--x--x--x--x--x--x-x-x-x-x-x-x-x-x-x--x--x--x--x--x--x--x--x--x--x--|
|-12/13-13-15-13-13-13-13--8--8--8-10--8--8--8--8--8/10-10-10-10-10-10-10--|
|--------------------------------------------------------------------------|

|-------------------------|
|-------------------------|
|-19\17-17-17-17\15-15-15-|
|--x--x--x--x--x--x--x--x-|
|-17\15-15-15-15\13-13-13-|
|-------------------------|

repeat intro/verse and pre-chorus

bridge (let this chord ring for awhile)
|----
|----
|----
|-0--
|-0--
|-0--

then this (clean)
|----------------------------------------------------------------------|
|----------------------------------------------------------------------|
|----------------------------------------------------------------------|
|10-----------------------17------15-----------------14----------------|
|-8-----------------------13------12-----------------10----------------|
|----------------------------------------------------------------------|

|----------------------------------------------------------------------|
|----------------------------------------------------------------------|
|----------------------------------------------------------------------|
|10-----------------------17------15-----------------14----------------|
|-8-----------------------13------12-----------------10----------------|
|----------------------------------------------------------------------|

(distortion)
|-------------------------------------------------------------------|
|-------------------------------------------------------------------|
|-------------------------------------------------------------------|
|---------0---------0-------0---0-----------0---------0-----0---0---|
|-1-1-1-1---1-1-1-1---1-1-1---1---0-0-0-0-0---0-0-0-0---0-0---0---0-|
|-------------------------------------------------------------------|
pm- - - -   - - - -   - - -   -   - - - - -   - - - -   - -   -   -

|-------------------------------------------------------------|
|-------------------------------------------------------------|
|-------------------------------------------------------------|
|---------0---------0-------0---0---0-0-0-0-0-0-0-0-0-0-0-0-0-|
|-1-1-1-1---1-1-1-1---1-1-1---1---0---------------------------|
|-------------------------------------------------------------|
pm- - - -   - - - -   - - -   -   -

repeat chorus

outro
|---------------------------|
|---------------------------|
|---------------------------|
|---0-0-0-----0-0-0---0-0-0-|
|---0-0-0-----0-0-0---0-0-0-|
|---0-0-0-----0-0-0---0-0-0-|
pm  - - -     - - -   - - -
Добавлено: 23.03.2012
Другие материалы по этой песне:

Страница создана 23.03.2012
http://primanota.ru/exit-ten/fine-night-chords.htm
Привет, Гость.
Предлагаем пройти революционный курс по гитаре.
Подарок от PrimaNota.Ru, забирай!