PrimaNota.ru - самый крупный в мире бесплатный архив песенных текстов, аккордов, табулатур и нот


Exilia - Stop Playing God - текст песни, таба, видео

Регистрация Запомнить меня
Войти через:  Facebook Google Twitter Vk Yandex Mail.ru

Exilia - Stop Playing God - текст песни, таба, видео

Печатать
Просмотров: 173
all in drop b

INTRO


gtr I
|-----------------------|
|-----------------------|
|-----------------------|
|-2-4-4-4-4-2-4-2-4-2-5-|
|-----------------------|
|-----------------------|(x4)


|-------------------------------------------------------------------|
|-------------------------------------------------------------------|
|-------------------------------------------------------------------|
|-------4-------5-----5-------4-------5-7---9-------4-------5-----5-|
|-------------------------------------------------------------------|
|-4-4-4---4-4-4---4-4---4-4-4---4-4-4-----4---4-4-4---4-4-4---4-4---|


|---------------------|
|---------------------|
|---------------------|
|-------------5--5--5-|
|-------------5--5--5-|
|-4-4-4-4-4-4-5--5--5-|

gtr II
|-----7-6-|
|-7-8-x-x-|
|-x-x-4-3-|
|-4-5-----|
|---------|
|---------|(x4)


VERSE

gtr I
|-----------------------|
|-----------------------|
|-----------------------|
|-2-4-4-4-4-2-4-2-4-2-5-|
|-----------------------|
|-----------------------|(x11)


|----------------------|
|----------------------|
|----------------------|
|-2-4-4-2-4-4-2-2-4----|
|----------------------|
|----------------------|

gtr II
|----------------|
|----------------|
|----------------|
|-4-4------2s4-4-|
|-4-4------2s4-4-|
|-4-4------2s4-4-|(x5)


|----|
|----|
|----|
|-4--|
|-4--|
|-4--|


CHORUS

gtrs I + II
|---------------------|
|-----------3---------|
|-6-6-8-8-9-2---9-8-4-|
|-4-4-6-6-7-0---7-6-2-|
|-4-4-6-6-7-0---7-6-2-|
|-4-4-6-6-7-0---7-6-2-|(x4)

Добавлено: 07.05.2012
Другие материалы по этой песне:

Страница создана 07.05.2012
http://primanota.ru/exilia/stop-playing-god-chords.htm
Привет, Гость.
Предлагаем пройти революционный курс по гитаре.
Подарок от PrimaNota.Ru, забирай!