PrimaNota.ru - самый крупный в мире бесплатный архив песенных текстов, аккордов, табулатур и нот


Exile Takahiro - Issen Ichibyou - аккорды и текст, видео

Регистрация Запомнить меня
Войти через:  Facebook Google Twitter Vk Yandex Mail.ru

Exile Takahiro - Issen Ichibyou - аккорды и текст, видео

Печатать
Просмотров: 155
Уроки эстрадного вокала в Санкт-Петербурге
Issen Ichibyou
Exile Takahiro
EXILE TAKAHIRO - 一千一秒 (One Thousand and One Seconds)
Transcribed by imspazzen

Capo on 1st fret

There is a picking pattern in the first verse. If you want to play it scroll to the bottom
to see it.
The solo is tabbed with the capo in mind.


{[Intro]}
Am  G  F  Em7  

F      Esus4 E


{[Verse 1]}
Am             Em
  Konomama futari wa doko he 
    F                  C7M  
Nagasarete yuku no darou?
Am            Em
  Tabun shiawase yori mo sou 
    F                  C   E7
Kanashii koto ga aru kedo


{[Pre-Chorus 1]}
    Am                 G
Nanimo kamo misukasu you na 
    F        E         Am  G
Kirei na hitomi no oku ni
   F          E        Am G    Em
Jounetsu ga kuruoshiku moeru kara 
 F             Am      E7
Anata wo mamoritai zutto


{[Chorus 1]}
   Am    G    Am      Em7      F
Daite daite daite kasureta koe de 
 G        C
Anata ni iwarete
    F      E7     Am        G
Hikikaesenai yoru no tobira wo 
  F                  G     E
Hiraite shimatta bokutachi wa

  Am    G    Am       Em7      F
Aitai aitai aitai ichibyougoto ni 
   G         C      E7
Tsunoru setsunasa wo
    F      E7     Am     
Sekaijuu kara semeraretatte
  F              G            Am
Tehanasu koto nante dekinai kara

G  Am  Em7  

F  Am  G


{[Verse 2]}
Am             G
  Nanto naku sugisatteta 
   F        G          C7M  
Heibon na hibi no naka de
Am              Em
  Iro wo nakushiteta hana ga
   F     G        C    E7
Akaku saita mitai ni


{[Pre-Chorus 2]}
    Am                 G
Hageshii kodoku to kodoku ga 
    F        E         Am
Fui ni ikiba wo mitsukete
    F           E          Am G     Em
Kotoba ni naranai kurai no itoshisa wo 
 F            Am     G    E7
Umarete hajimete shitta


{[Chorus 2]}
     Am      G       Am     Em7      F
Kaze ga kaze ga kaze ga asu no yukue wo 
  G       C
Mienakushitatte
    F          E7    Am        G
Hagure wa shinai yakusoku shiyou 
  F                 G     E
Mirai ga donna ni tookute mo

  Am    G     Am     Em7     F
Aitai aitai aitai sennensaki mo 
 G        C   E7
Anata ni aitai
    F         E7      Am   G    Em7
Haruka kanata no yume wo sagashite 
  F             G
Konomama futari de ikite yukou


{[Bridge]}
Am              Em7            Am
  Kizutsuki nagara samayoi nagara 
               G
Yatto deaeta futatsu no ai wa
   F        E      Am    G  Em7
Tatta hitosuji hikari ga areba 
      F         G
Hanarenai hanasanai mou


{[Guitar Solo]}
   Am         G         Am               Em7
e|--------------------|-----------------------------------|
B|-9b10--10r9-9~------|---5---5---------------------------|
G|----------------5-7-|-----7------7-5---5*-x---5---5-7s9-|
D|--------------------|----------------7------7---7-------|
A|--------------------|-----------------------------------|
E|--------------------|-----------------------------------|

   F           G                       C
e|-----------------------------------|------13-----------------------------|
B|-8-\---------13----15p13---15b17---|-(17)----15b17---15p13-15-13-13~---\-|
G|--------12------12------12---------|-------------------------------------|
D|-----------------------------------|-------------------------------------|
A|-----------------------------------|-------------------------------------|
E|-----------------------------------|-------------------------------------|

   F             E7                           Am                G
e|-15b17---15-13-12-13-14-15----------------|----------15-----15-----1515--------------|
B|---------------------------13----13h15-15-|--13-15b17--15b17--15b17-----12h13p12--12-|
G|------------------------------14----------|-------------------------------------14---|
D|------------------------------------------|------------------------------------------|
A|------------------------------------------|------------------------------------------|
E|------------------------------------------|------------------------------------------|

   F                            G
e|----------------------------|----10---17b19r17-15~------|
B|-------------10-12-13-10-12-|-13------------------------|
G|-14~-\--/9~-----------------|---------------------------|
D|----------------------------|---------------------------|
A|----------------------------|---------------------------|
E|----------------------------|---------------------------|



{[Chorus 3]}
   Am    G     Am     Em7      F
Daite daite daite kasureta koe de 
 G        C
Anata ni iwarete
    F      E7     Am        G
Hikikaesenai yoru no tobira wo 
  F                  G     E
Hiraite shimatta bokutachi wa

  Am    G     Am      Em7      F
Aitai aitai aitai ichibyougoto ni 
   G         C     
Tsunoru setsunasa wo
    F      E7     Am     
Sekaijuu kara semeraretatte
  F              G            Am
Tehanasu koto nante dekinai kara


{[Ending]}
G  F  Em7

F

Then end on this chord:
e|--0---
B|--3---
G|--2---
D|--2---
A|--0---
E|--0---

___________________________________________________
I hope you enjoy playing the song! Feel free to ask 
questions/give corrections in the comments below!

___________________________________________________
1st verse picking pattern (notes relative to capo)
  Am                Em               F                  C7M  
e|----------------|----------------|-----------------|-------0---------|
B|-------1--------|-------0-----3--|-------1-----1---|-----0------0----|
G|-----2------2---|-----0----------|-----2-----------|----------0---0--|
D|---2------2-----|---2-------2----|---3-------3-----|---2-------------|
A|----------------|----------------|-5---------------|-3---------------|
E|-1--------------|-0--------------|---------3-------|-----------------|

 Am                Em               F                  C7M        E7
e|----------------|----------------|-----------------|------------0----|
B|-------1--------|-------0-----3--|-------1---------|-----3-1----3----|
G|-----2------2---|-----0----------|-----2-------2---|----------0-1----|
D|---2------2---2-|---2-------2----|---3-------3-----|---2--------0----|
A|----------------|----------------|-5---------------|-3----------2----|
E|-1--------------|-0--------------|---------3-------|------------0----|
Добавлено: 02.01.2016
Другие материалы по этой песне:
  • Аккорды и текст

Страница создана 02.01.2016
http://primanota.ru/exile-takahiro/issen-ichibyou-chords.htm
Привет, Гость.
Предлагаем пройти революционный курс по гитаре.
Подарок от PrimaNota.Ru, забирай!