PrimaNota.ru - самый крупный в мире бесплатный архив песенных текстов, аккордов, табулатур и нот


Exhumed - Necromaniac - текст песни, таба, видео

Регистрация Запомнить меня
Войти через:  Facebook Google Twitter Vk Yandex Mail.ru

Exhumed - Necromaniac - текст песни, таба, видео

Печатать
Просмотров: 131
Band: Exhumed
Album: Gore Metal
Song: Necromaniac

Code:
Suffixes for bend:
fb - full bend       hb - half bend
qb - quarter bend    t - tap bend
r - release bend

Suffixes for harmonic:
^ - pinched harmonic      n – natural harmonic

Suffixes for mute:
. – palm mute            x – staccato mute
, - light palm mute      ; - heavy palm mute

Other:
/ - slide up to            \ - slide down to       
h - hammer on              p - pull off
" - tremolo note           <> - Trill
* - see comment

Tuning B E A D F# B

Intro (0:00)
|----------------------|
|----------------------|
|----------------------|
|-5----------5-------3-|
|-3-5-4-3-2--3-5-4-3-1-|
|---3-2-1-0----3-2-1---|

Riff 1 (0:02) play 4 times
|-----------------|
|-----------------|
|-----------------|
|-3/4-------4/5---|
|-1/2-2-4\3-2/3-3-|
|-----0-2\1-----1-|

Riff 2 (0:08)
             [x3]
|-----------------|----------------|
|-----------------|----------------|
|-----------------|----------------|
|-6/7---7\6\5-3---|-6/7---7--3-----|
|-4/5-6-5\4\3-1-3-|-4/5-6-5--1--3--|
|-----4---------1-|-----4-------1--|

Riff 3 (0:13)
|----------------------------------|
|----------------------------------|
|----------------------------------|
|-------------------------------3--|
|-------------------------------1--|
|-222222222222222222222222222222---|

|-------------------------------------|
|-------------------------------------|
|-------------------------------------|
|-------------------------------3-2---|
|-------------------------------1-0-3-|
|-222222222222222222222222222222----1-|

|----------------------------------|
|----------------------------------|
|----------------------------------|
|-------------------------------2--|
|-------------------------------0--|
|-222222222222222222222222222222---|

|-------------------------------------|
|-------------------------------------|
|-------------------------------------|
|-------------------------------3-3---|
|-------------------------------1-1-3-|
|-222222222222222222222222222222----1-|

Riff 4 (0:21) Play 4 Times
|---------------------------|
|---------------------------|
|---------------------------|
|-----5------------5--------|
|-4-5-3-5-6----4-5-3-5-6----|
|-2-3---3-4----2-3---3-4----|

Riff 3 (0:30)
|----------------------------------|
|----------------------------------|
|----------------------------------|
|-------------------------------3--|
|-------------------------------1--|
|-222222222222222222222222222222---|

|-------------------------------------|
|-------------------------------------|
|-------------------------------------|
|-------------------------------3-2---|
|-------------------------------1-0-3-|
|-222222222222222222222222222222----1-|

|----------------------------------|
|----------------------------------|
|----------------------------------|
|-------------------------------2--|
|-------------------------------0--|
|-222222222222222222222222222222---|

|-------------------------------------|
|-------------------------------------|
|-------------------------------------|
|-------------------------------3-3---|
|-------------------------------1-1-3-|
|-222222222222222222222222222222----1-|


Riff 4 (0:38) Play 4 Times
|---------------------------|
|---------------------------|
|---------------------------|
|-----5------------5--------|
|-4-5-3-5-6----4-5-3-5-6----|
|-2-3---3-4----2-3---3-4----|


Riff 5 (0:47) Play 4 times
|-----------------------------------------------------------------|
|-----------------------------------------------------------------|
|-----------------------------------------------------------------|
|---------1-1-----------------------------1-1-------------3-3-4---|
|-------------2-2---------2-2-1-1-------------2-2---------1-1-2---|
|-4-4-4-4---------3-3-3-3---------4-4-4-4---------3-3-3-3---------|
  trem...................................................

CUNTY FILL (1:03)
|------------|
|------------|
|------------|
|-5----------|
|-3-5-4-3-2--|
|---3-2-1-0--|


Riff 3 (1:04)
|----------------------------------|
|----------------------------------|
|----------------------------------|
|-------------------------------3--|
|-------------------------------1--|
|-222222222222222222222222222222---|

|-------------------------------------|
|-------------------------------------|
|-------------------------------------|
|-------------------------------3-2---|
|-------------------------------1-0-3-|
|-222222222222222222222222222222----1-|

|----------------------------------|
|----------------------------------|
|----------------------------------|
|-------------------------------2--|
|-------------------------------0--|
|-222222222222222222222222222222---|

|-------------------------------------|
|-------------------------------------|
|-------------------------------------|
|-------------------------------3-3---|
|-------------------------------1-1-3-|
|-222222222222222222222222222222----1-|


Riff 4 (1:11) Play 4 Times
|---------------------------|
|---------------------------|
|---------------------------|
|-----5------------5--------|
|-4-5-3-5-6----4-5-3-5-6----|
|-2-3---3-4----2-3---3-4----|


Riff 5 (1:21) Play 4 times
|-----------------------------------------------------------------|
|-----------------------------------------------------------------|
|-----------------------------------------------------------------|
|---------1-1-----------------------------1-1-------------3-3-4---|
|-------------2-2---------2-2-1-1-------------2-2---------1-1-2---|
|-4-4-4-4---------3-3-3-3---------4-4-4-4---------3-3-3-3---------|
  trem...................................................

Riff 6 (1:37) play 4 times.
|-----------------------------|
|-----------------------------|
|-----------------------------|
|-----8-------------6---------|
|-6-6-6-9--5----4-4-4-7--3----|
|-4-4---7--3----2-2---5--1----|
          vib         vib

Riff 7 (1:45) play 2 times.
|-------------------------|
|-------------------------|
|-------------------------|
|---8-----------6---------|
|-6-6-9--5----4-4-7--3----|
|-4---7--3----2---5--1----|
        vib         vib

Riff 8 (1:53) play 4 times over solo.
|--------------------------|
|--------------------------|
|--------------------------|
|------5---------6---------|
|-2----3----3----4----5/8--|
|-0---------1---------3/6--|


CUNTY FILL AGAIN (2:09)
|------------|
|------------|
|------------|
|-5----------|
|-3-5-4-3-2--|
|---3-2-1-0--|



*GUITAR WAILS!!!!!*



Riff 5 (2:11) Play 3 times
|-----------------------------------------------------------------|
|-----------------------------------------------------------------|
|-----------------------------------------------------------------|
|---------1-1-----------------------------1-1-------------3-3-4---|
|-------------2-2---------2-2-1-1-------------2-2---------1-1-2---|
|-4-4-4-4---------3-3-3-3---------4-4-4-4---------3-3-3-3---------|
  trem...................................................

|-----------------------------------------------------------------|
|-----------------------------------------------------------------|
|-----------------------------------------------------------------|
|---------1-1-----------------------------1-1-------------3-3-4---|
|-------------2-2---------2-2-1-1-------------2-2---------1-1-2---|
|-4-4-4-4---------3-3-3-3---------4-4-4-4---------3-3-3-3---------|
  trem...................................................    let ring

(2:29)
|----------|
|----------|
|----------|
|-4-3------|
|-2-1-6-5--|
|-----4-3--|



THE END.
Добавлено: 10.05.2012
Другие материалы по этой песне:

Страница создана 08.04.2012
http://primanota.ru/exhumed/necromaniac-chords.htm
Привет, Гость.
Предлагаем пройти революционный курс по гитаре.
Подарок от PrimaNota.Ru, забирай!