PrimaNota.ru - самый крупный в мире бесплатный архив песенных текстов, аккордов, табулатур и нот


Exhumed - Funeral Fuck - текст песни, таба, видео

Регистрация Запомнить меня
Войти через:  Facebook Google Twitter Vk Yandex Mail.ru

Exhumed - Funeral Fuck - текст песни, таба, видео

Печатать
Просмотров: 92
Band: Exhumed
Album: Slaughtercult
Song: Funeral Fuck


Code:
Suffixes for bend:
fb - full bend       hb - half bend
qb - quarter bend    t - tap bend
r - release bend

Suffixes for harmonic:
^ - pinched harmonic      n – natural harmonic

Suffixes for mute:
. – palm mute            x – staccato mute
, - light palm mute      ; - heavy palm mute

Other:
/ - slide up to            \ - slide down to       
h - hammer on              p - pull off
" - tremolo note           <> - Trill
* - see comment

Tuning B E A D F# B


Intro (0:00)
|------------------------------------------------|
|------------------------------------------------|
|------------------------------------------------|
|-2"----------2"----------2"----------2"---------|
|----1"-2"-------1"-3--2-----1"-2"-------0"-2----|
|----------1"-------1--0-----------1"-------0----|


Riff 1 (0:04) play 4 times
|-----------------------------------------------------------------|
|-----------------------------------------------------------------|
|-------------------------------------------------5---------------|
|-7-------6-------9-------6-------7-------6---------------6-------|
|---0-0-0---0-0-0---0-0-0---0-0-0---------------------------------|
|-----------------------------------4-4-4---4-4-4---4-4-4---4-4-4-|
    . . .   . . .   . . .   . . .   . . .   . . .   . . .   . . .

Riff 2 (0:20) play 4 times
|---------------------------------------------------------------|
|---------------------------------------------------------------|
|---------------------------------------------------------------|
|-7h8-5h7-3h5-2h3---------------------------------5p3-5h6-2"----|
|-------------------------------------5p3-6p5-8p6---------------|
|-----------------44444444444444444444--------------------------|
                  ....................

Riff 3 (0:39) play twice
|-------------------------------------------------|
|-------------------------------------------------|
|-------------------------------------------------|
|-6"-------------------3"-6"----------------6"-5"-|
|-------5"----------3"----------5"----------------|
|----3"----2"-2"-5"----------3"----2"-2"-5"-------|


Intro x 1 (0:47)
Riff 1 x 1 (0:51)
Riff 2 x 1 (1:08)

Riff 4 (1:27)
|-------------------------------------------------
|-------------------------------------------------
|-------------------------------------------------
|-6"-------------------3"-6"----------------6"-5"-
|-------5"----------3"----------5"----------------
|----3"----2"-2"-5"----------3"----2"-2"-5"-------

-------------------------------------------------|
-------------------------------------------------|
-------------------------------------------------|
-6"-------------------3"-6"----------------------|
-------5"----------3"----------5"----------5--4--|
----3"----2"-2"-5"----------3"----2"-2"-5"-3--2--|


Riff 5 (1:35)
                            [x4]                           [x4]
|------------------------------|------------------------------|
|------------------------------|------------------------------|
|------------------------------|------------------------------|
|------------------------------|------------------------------|
|------------------------------|-7--5\4-5\4-6--5\4-5\4-8--5\4-|
|-5--3p2-3p2-4--3p2-3p2-6--3\2-|-5--3\2-3\2-4--3\2-3\2-6--3\2-|

Solo begins at (1:51)

Riff 6 (1:51)
                            [x4]                           [x4]
|------------------------------|------------------------------|
|------------------------------|------------------------------|
|------------------------------|------------------------------|
|------------------------------|------------------------------|
|------------------------------|-7--5\4-5\4-6--5\4-5\4-8--5\4-|
|-3--1p0-1p0-2--1p0-1p0-4--1p0-|-5--3\2-3\2-4--3\2-3\2-6--3\2-|


Riff 7 (2:06) play twice
Guitar 1
|-----------------------------------------------------------------|
|-----------------------------------------------------------------|
|-----------------------------------------------------------------|
|-----------------------------------------------------------------|
|-7-------------------------------6-------------------------------|
|-5-------------------------------4-------------------------------|

Guitar 2
|-----------------------------------------------------------------|
|-----------------------------------------------------------------|
|-------------------------------------------------5---------------|
|-7-------6-------9-------6-------7-------6---------------6-------|
|---0-0-0---0-0-0---0-0-0---0-0-0---------------------------------|
|-----------------------------------4-4-4---4-4-4---4-4-4---4-4-4-|
    . . .   . . .   . . .   . . .   . . .   . . .   . . .   . . .


Riff 1 x 1 (2:15)
Riff 2 x 1 (2:31)
Riff 3 x 1 (2:50)
Intro x 1 (2:58)
End (3:03) 
Добавлено: 05.03.2012
Другие материалы по этой песне:

Страница создана 05.03.2012
http://primanota.ru/exhumed/funeral-fuck-chords.htm
Привет, Гость.
Предлагаем пройти революционный курс по гитаре.
Подарок от PrimaNota.Ru, забирай!