PrimaNota.ru - самый крупный в мире бесплатный архив песенных текстов, аккордов, табулатур и нот


Exhorder - Legions Of Death - текст песни, таба, видео

Регистрация Запомнить меня
Войти через:  Facebook Google Twitter Vk Yandex Mail.ru

Exhorder - Legions Of Death - текст песни, таба, видео

Печатать
Просмотров: 176
Band: EXHORDER
Album: Slaughter in the Vatican
Song: Legions of Death

Copyright (c)  (RoadRunner) (1990)
Version 1.0


.  - palm mute           /  - slide up to
\  - slide down to       ~  - vibrato
h  - hammer on           b  - Bend
p  - pull off            Suffixes for bend
t  - tap                 f  - full bend    h - half bend
ph - pinched harmonic    q  - quarter bend t - tap bend
*  - see comment         ^  - Hold bend    r release bend
x  - Stuccatto           ~  - vibrato bend
,  - slight palm mute    () - ghost note, sustained note
"  - tremolo note        <> - Trill

Tuning D G C F A D

 RIFF 1                                                          3X
|--------------------------------|---------------------------------|
|--------------------------------|---------------------------------|
|--------------------------------|---------------------------------|
|-9-7-9--------------------------|-9-7-9---------------------------|
|-7-5-7--2-222-7/8---8---8---8---|-7-5-7--2-222-222-222-222-222----|
|--------0-000-5/6-006-006-006-0-|--------0-000-000-000-000-000-0--|
                                                               1X
|-----the-song-ends-here-|-------|-------------------------------|
|------------------------|-------|-------------------------------|
|--------------------------------|-------------------------------|
|-9-7-9--------------------------|-9-7-9-------------------------|
|-7-5-7--2-222-7/8---8---8---8---|-7-5-7--2-222-222----5------7--|
|--------0-000-5/6-006-006-006-0-|--------0-000-000-0003-0-0005--|
FILL 1
|-----------------------|
|-----------------------|
|-----------------------|
|---------10--9---7<8>--|
|-8---7---8---7---------|
|-6---5-----------------|
                                          MAIN VERSE RIFF 2   6X
|-while-this-guitar-plays-this----------------------------------|
|-riff-the-other-guitar-just------------------------------------|
|-plays-opens-every-beat-4X-------------------------------------|
|-then-joins-in------------------------7/9----------10\10-10\7--|
|---------8-------------8---8----------5/7----------10\8---8\5--|
|-000000006-0000000000006-0-6-00000000-----00000000-------------|
 RIFF 3                                                            1X
|----------------------------------|---------------------------------|
|----------------------------------|---------------------------------|
|----------------------------------|---------------------------------|
|----------------------------------|---------------------------------|
|----------------------------7h8p7-|---------------------------------|
|-5555555565555558555555-5-6-------|-5555555565555553333333333333333-|
continued from above                                   first time you
|----------------------------------|-----------------|-play-this-riff---|
|----------------------------------|-----------------|-play-this-ending-|
|----------------------------------|-----------------|------------------|
|----------------------------------|-----------------|-7-8-7---9-8------|
|----------------------------7h8p7-|-----------------|-------8-7-6------|
|-5555555565555558555555-5-6-------|-555555556555555-|------------------|
 and the 2nd
|time-you-play----|
|this-riff-end-it-|
|with-this--------|
|-----------------|
|-7-8-7---9-8-----|
|-------8-7-6-----|
RIFF 4                                                                     8X
|----------------------------------------------------------------------------|
|----------------------------------------------------------------------------|
|----------------------------------------------------------------------------|
|-------------7h8p7-------------9h10p9------------7h8p7----------------------|
|-00000000-7h8-----00000000-9h10------00000000-7h8-----0000-6h7p6-0000-7h8p7-|
|----------------------------------------------------------------------------|
                                                 2ND VERSE RIFF 2X
|-----------------------------------------------------------------|
|-----------------------------------------------------------------|
|-----------------------------------------------------------------|
|-------------------------------------7/9-------------12\10-10\7--|
|---------8-------------8---8---------5/7-------------10\8---8\5--|
|-0-0-0-0-6-0-0-0-0-0-0-6-0-6-0-0-0-0-----0-0-0-0-0-0-------------|
FILL 2
|--------------------------------|
|--------------------------------|
|--------------------------------|
|----------------5--6--3--5---8--|
|-6--5--3--2--3--3--4--1--3---6--|
|-4--3--1--0--1-------------0----|
RIFF 5 VERSION 1                                                  4X
|-------------------------------------------------------------------|
|-------------------------------------------------------------------|
|-------------------------------------------------------------------|
|--------10/9--------10/9----10/9--------10/9-----------------------|
|---------8/7---------8/7-----8/7---------8/7---------8p7-10p8---8--|
|-0-0-0-0-----0-0-0-0-----0-0-----0-0-0-0-----0-0-0-0---------10----|

|---------------------------------------------------------|
|---------------------------------------------------------|
|---------------------------------------------------------|
|--------10/9---------7----10--------10/9-----------------|
|---------8/7---------5-----8---------8/7---------8-5/7-5-|
|-0-0-0-0-----0-0-0-0---0-0---0-0-0-0-----0-0-0-0-6-3/5-3-|

RIFF 5 VERSION 2                                                  2X
|-------------------------------------------------------------------|
|-------------------------------------------------------------------|
|-------------------------------------------------------------------|
|--------10/9--------10/9----10/9--------10/9-----------------------|
|---------8/7---------8/7-----8/7---------8/7---------8p7-10p8---8--|
|-0-0-0-0-----0-0-0-0-----0-0-----0-0-0-0-----0-0-0-0---------10----|

|---------------------------------------------------------|
|---------------------------------------------------------|
|---------------------------------------------------------|
|--------10/9---------3-----7--------10/9-----------------|
|---------8/7---------5-----8---------8/7---------8-5/7-5-|
|-0-0-0-0-----0-0-0-0---0-0---0-0-0-0-----0-0-0-0-6-3/5-3-|

END
Добавлено: 02.04.2012
Другие материалы по этой песне:
  • Аккорды и текст

Страница создана 21.02.2012
http://primanota.ru/exhorder/legions-of-death-chords.htm
Привет, Гость.
Предлагаем пройти революционный курс по гитаре.
Подарок от PrimaNota.Ru, забирай!