PrimaNota.ru - самый крупный в мире бесплатный архив песенных текстов, аккордов, табулатур и нот


Exhorder - Desecrator - текст песни, таба, видео

Регистрация Запомнить меня
Войти через:  Facebook Google Twitter Vk Yandex Mail.ru

Exhorder - Desecrator - текст песни, таба, видео

Печатать
Просмотров: 259
Уроки эстрадного вокала в Санкт-Петербурге
Авторы: Vinnie LaBella, Jay Ceravolo, Kyle Thomas, Chris Nail

Band: Exhorder
Album: Slaughter in the Vatican
Song: Desecrater

Copyright (c)  (Roadrunner) (1990)
Version 1.0


.  - palm mute           /  - slide up to
\  - slide down to       ~  - vibrato
h  - hammer on           b  - Bend
p  - pull off            Suffixes for bend
t  - tap                 f  - full bend    h - half bend
ph - pinched harmonic    q  - quarter bend t - tap bend
*  - see comment         ^  - Hold bend    r release bend
x  - Stuccatto           ~  - vibrato bend
,  - slight palm mute    () - ghost note, sustained note
"  - tremolo note        <> - Trill

Tuning D
INTRO     4X             4X
|-----------|-------------|--------------|
|-----------|-------------|--------------|
|-----------|-(9)---------|-9----10------|
|-9--8------|-(9)---------|-9----10------|
|-7--6------|-(7)---------|-7-----8------|
|-7--6------|-------------|---0-0--------|
RIFF 1                        . .
|----------------------------------------------------------------------|
|----------------------------------------------------------------------|
|----------------------------------------------------------------------|
|-2-------------4-3------------10-9-------------------9-8--------------|
|-2-----4-5-----2-1-----5---3---8-7-----4-5---7--10-9-7-6-5h6p5-7-8-5--|
|-0-0-0-2-3-0-0-----0-0-3-0-1-0-----0-0-2-3-0-5-0-8-7-----------5-6-3--|
    . .     . .     . .   .   .     . .     .   . . . . .          2X
|--------------------------------------------------------------------|
|--------------------------------------------------------------------|
|--------------------------------------------------------------------|
|-2-------------4-3------------10-9---------------9----10------------|
|-2-----4-5-----2-1-----5---3---8-7-----4-5---7---7-9-8-8-6<7>-10-9--|
|-0-0-0-2-3-0-0-----0-0-3-0-1-0-----0-0-2-3-0-5-0---7-6---------8-7--|
    . .     . .     . .   .   .     . .     .   .   . .
FILL     1X
|----------|
|----------|
|----------|
|-8-7-8-5--|
|-8-7-8-5--|
|-6-5-6-3--|
VERSE RIFF
|-----------------------------------------------------------------|
|-----------------------------------------------------------------|
|-----------------------------------------------------------------|
|-2---------------------------------------------------------------|
|-2-----7/8---8/9---9\8---8\7---6------7/8---8/9---4/5---7/8-4/5--|
|-0-0-0-5/6-0-6/7-0-7\6-0-6\5-0-4--0-0-5/6-0-6/7-0-2/3-0-5/6-2/3--|
    . .     .     .     .     .    . .     .     .     .
|------------------------------------------------------------------|
|------------------------------------------------------------------|
|------------------------------------------------------------------|
|-2-------------------------------------------------------------5--|
|-2-----7/8---8/9---9\8---8\7---6------7/8---8/9---4/5---7/8----3--|
|-0-0-0-5/6-0-6/7-0-7\6-0-6\5-0-4--0-0-5/6-0-6/7-0-2/3-0-5/6-00----|
    . .     .     .     .     .    . .     .     .     .     ..
RIFF 3
|------------------------------------------------------------------|
|------------------------------------------------------------------|
|------------------------------------------------------------------|
|-----4-----5-----4---------------4-----5-----4-----5--------------|
|-2-4-2-2-4-3-2-4-2-2-4-3-2-3-2-5-2-2-4-3-2-4-2-2-4-3-4-3-2-3-4-5--|
|-0-2---0-2---0-2---0-2-1-0-1-2-3---0-2---0-2---0-2---2-1-0-1-2-3--|
  . . . . . . . . . . . . . . . . . . . . . . . . . . . . . . . .
RIFF 4                          3X           1X
|---------------------------------|------------|
|---------------------------------|------------|
|---------------------------------|------------|
|-------4-5-----4-3-----3-2-------|---------2--|
|-2-4-5-2-3-5-4-2-1-4-3-1-0-4-5-4-|-7/8-4/5-2--|
|-0-2-3-----3-2-----2-1-----2-3-2-|-5/6-2/3-0--|
RIFF 5
|----------------------------------------------------------------------|
|----------------------------------------------------------------------|
|----------------------------------------------------------------------|
|----------------------------------------------------------------------|
|------------------------------------8------------------------4/5---8--|
|-000000000000000000000000-6-5h6p5-0-6-0000000000000000000000-2/3-0-6--|
  ........................         .   ......................     .
CHORUS
|----------------------------------------------------------------|
|----------------------------------------------------------------|
|----------------------------------------------------------------|
|---------------2------------------------------2-------3----3\2--|
|-3\2-----3\2------------1-0-----3\2-----3\2-----------1----1p0--|
|-1p0-0-0-1p0-0---0-0-1-3----3-0-1p0-0-0-1p0-0---0-1-3---0-0-----|
      . .     .   . . . .    .       . .     .   . . .   . .
RIFF 7
|--------------------------------------------------------------------------|
|--------------------------------------------------------------------------|
|--------------------------------------------------------------------------|
|----------9--------7/9-------------------------9--------7\9---------------|
|-7h8p7----7--------5/7------8-7---3---7h8p7----7--------5\7------8-7---3--|
|------0000-00000000----0000-6-5-0-1-0------0000-00000000----0000-6-5-0-1--|
                             . . . . .                            . . .
|----------------------------------------------------------------------------|
|----------------------------------------------------------------------------|
|----------------------------------------------------------------------------|
|----------9--------7/9--------------------------9--------7\9----------------|
|-7h8p7----7--------5/7-------8-7---3---7h8p7----7--------5\7-----4-3--------|
|------0000-00000000----00000-6-5-0-1-0------0000-00000000----6-5-----2-3-2--|
                              . . . . .                       . .     . . .
RIFF 8
|----------------------------------------------------------------------|
|----------------------------------------------------------------------|
|----------------------------------------------------------------------|
|----------------------------------------------------------------------|
|------------------------------------8------------------------4\5---8--|
|-000000000000000000000000-6-5h6p5-0-6-0000000000000000000000-2\3-0-6--|
  ........................ .       .   ......................     .
|-------------------------------------------------------------------------|
|-------------------------------------------------------------------------|
|-------------------------------------------------------------------------|
|-------------------------------------------------------------------------|
|--------------------------4\5---8----------------------------------------|
|-000000000000000000000000-2\3-0-6-00000000000000000-7-6h7p6-0-6-5h6p5-0--|
  ........................     .   ................. .       . .       .
RIFF 9
|----------------------------------------------------------------------|
|----------------------------------------------------------------------|
|----------------------------------------------------------------------|
|-----------------3---3-----------------------------3---3--------------|
|-----------3-----1---1-2-------7/8-----------3-----1---1-2---7/8-7/8--|
|-2h3p2-0-0-1-0-0---0---0-0-0-0-5/6-2h3p2-0-0-1-0-0---0---0-0-5/6-5/6--|
        . .   . .   .     . . .           . .   . .   .     .
|--------------------------------------------------------------------|
|--------------------------------------------------------------------|
|--------------------------------------------------------------------|
|-----------------3---3-----------------------------3---3--------10--|
|-----------3-----1---1-2-------7/8-----------3-----1---1-2-------8--|
|-2h3p2-0-0-1-0-0---0---0-0-0-0-5/6-2h3p2-0-0-1-0-0---0---0-0-0-0----|
        . .   . .   .     . . .           . .   . .   .     . . .
RIFF 10                         4X
|---------------------------------|
|---------------------------------|
|---------------------------------|
|-----------------------------9\--|
|-7h87h8-7h87h8-7h87h8-7h87h8-7\--|
|-------0------0------0------0----|
        .      .      .      .
|--------------------------------------------------|
|--------------------------------------------------|
|--------------------------------------------------|
|--------------------------------------------------|
|-8p78p7---7p67p6----------8p78p7---7p67p6----6----|
|-------8p7------7p67p6-6p5------8p7------7/8---7--|
                                                .
RIFF 11
|--GUITAR-1--------------|
|------------------------|
|------------------------|
|-8---------5--4---------|
|-6---------3--2---------|
|-------0-0-------0-0-0--|
|       . .       . . .  |
|--GUITAR-2--------------|
|------------------------|
|------------------------|
|------------------------|
|------------------------|
|-6h7p6-0-0-5h6p5-5-6-5--
        . .       . . .
RIFF 12
|----------------------------------|
|----------------------------------|
|----------------------------------|
|---------4/5-----5\4---4\3--------|
|---------2/3-----3\2---2\1-4-5\4--|
|-00000000----0000----0-----2-3\2--|
  ........    ....    .     .
END NOTE
|----|
|----|
|-3--|
|-3--|
|-1--|
|----|

END

Добавлено: 02.05.2012
Другие материалы по этой песне:

Страница создана 30.03.2012
http://primanota.ru/exhorder/desecrator-chords.htm
Привет, Гость.
Предлагаем пройти революционный курс по гитаре.
Подарок от PrimaNota.Ru, забирай!