PrimaNota.ru - самый крупный в мире бесплатный архив песенных текстов, аккордов, табулатур и нот


Exemption - Blood Heaven - бас-таба, видео

Регистрация Запомнить меня
Войти через:  Facebook Google Twitter Vk Yandex Mail.ru

Exemption - Blood Heaven - бас-таба, видео

Печатать
Просмотров: 62
-------------------------------------------------------------------------------
                             Blood Heaven - Exemption
- Public Cemetary Party
-------------------------------------------------------------------------------
E-mail: kacperlatawiec@gmail.com

Tuning: drop D

Intro:

G|-----------------------------|
D|-----------------------------|
A|--------0---2-3~------2~-----|
D|--4-2-4---4------------------|

G|----------------------------------------|
D|----------------------------------------|
A|----------------0---2-3~-------2~-------|
D|4-2-4-----4-2-4---4---------------------| (x2)

G|--------------------------------------------------------------------------------------------------------|
D|--------------------------------------------------------------------------------------------------------|
A|-------------------2222244-------------------2222244-------------------2222244--------------------------|
D|4-2-4-----4-2-4-2------------4\-----4-2-4-2------------4\-----4-2-4-2------------4\-----4-2-0---0-2-0---|

G|-----------r-------------------------------|
D|-----------e-------------------------------|
A|-----------s----------2-3~-------2~---0~---|
D|4-2-4-2-4--t-------------------------------|

G|----------------------------------------------|
D|----------------------------------------------|
A|----------------0---2-3~-------2~---0~--------|
D|4-2-4-----4-2-4---4----------------------5~---|

Verse:

G|--------------------------------------------|
D|--------------------------------------------|
A|--------------------------------------------|
D|-3---------0333-------4000-------4000-------|

G|--------------------------------------------|
D|--------------------------------------------|
A|--------------------------------------------|
D|0333-------0333-------4000-------4000-------| 


G|--------------------------------------------|
D|--------------------------------------------|
A|--------------------------------------------|
D|0333-------0333-------4000-------4000-------|

Chorus:

G|-------------------------------------------------------------------------|
D|-3---2--------------------------------3---2------------------------------|
A|----------5-3----2---------2-----5-------------5-3----2------------------|
D|----------------------5------------------------------------5-----9----11-|

G|-------------------------------------------------------|
D|-------------------------------------------------------|
A|-----------------------------------------------------0-|
D|-12-0-11-0-9-7-0-4--2--4--7-12-0-11-0-9-7-0-4--2--4----|

G|-------------------------------------------------------------------------|
D|-3---2--------------------------------3---2------------------------------|
A|----------5-3----2---------2-----5-------------5-3----2------------------|
D|----------------------5------------------------------------5-----9----11-|

G|------------------------------------------------------------|
D|------------------------------------------------------------|
A|------------------------------------------------------------|
D|-12-0-11-0-9-7-0-4--2--4--7-12-0-11-0-9-7-0-4--2--0-0-2-4-5-|

Bridge:

G|------------------------------------------------------------|
D|------------------------------------------------------------|
A|------------------------------------------------------------|
D|-2--------------5--------------9---------------------0-2-4-5|

G|------------------------------------------------------------|
D|------------------------------------------------------------|
A|------------------------------------------------------------|
D|-2--------------5--------------12--------------------0-2-4-5|


G|------------------------------------------------------------|
D|------------------------------------------------------------|
A|------------------------------------------------------------|
D|-2--------------5--------------9---------------------0-2-4-5|

G|------------------------------|
D|------------------------------|
A|------------------------------|
D|-2--------------5-------------|

Verse:

G|--------------------------------------------|
D|--------------------------------------------|
A|--------------------------------------------|
D|0333-------0333-------4000-------4000-------|

G|--------------------------------------------|
D|--------------------------------------------|
A|--------------------------------------------|
D|0333-------0333-------4000-------4000-------|

Chorus:

G|-------------------------------------------------------------------------|
D|-3---2--------------------------------3---2------------------------------|
A|----------5-3----2---------2-----5-------------5-3----2------------------|
D|----------------------5------------------------------------5-----9----11-|

G|-------------------------------------------------------|
D|-------------------------------------------------------|
A|-----------------------------------------------------0-|
D|-12-0-11-0-9-7-0-4--2--4--7-12-0-11-0-9-7-0-4--2--4----|

G|-------------------------------------------------------------------------|
D|-3---2--------------------------------3---2------------------------------|
A|----------5-3----2---------2-----5-------------5-3----2------------------|
D|----------------------5------------------------------------5-----9----11-|

G|------------------------------------------------------------|
D|------------------------------------------------------------|
A|------------------------------------------------------------|
D|-12-0-11-0-9-7-0-4--2--4--7-12-0-11-0-9-7-0-4--2--0-0-2-4-5-|

Bridge:

G|------------------------------------------------------------|
D|------------------------------------------------------------|
A|------------------------------------------------------------|
D|-2--------------5--------------9---------------------0-2-4-5|

G|------------------------------------------------------------|
D|------------------------------------------------------------|
A|------------------------------------------------------------|
D|-2--------------5--------------0---------------------0-2-4-5|


G|------------------------------------------------------------|
D|------------------------------------------------------------|
A|------------------------------------------------------------|
D|-2--------------5--------------9---------------------0-2-4-5|

G|------------------------------------------------------------|
D|------------------------------------------------------------|
A|------------------------------------------------------------|
D|-2--------------5--------------0---------------------0-2-4-5|

G|------------------------|
D|------------------------|
A|------------------------|
D|-2--------------5-------|

Outro:

G|-------------------------------------------------|
D|-------------------------------------------------|
A|-------------------------------------------------|
D|-0--0--0--0--0--0--0--0--0--0--0--0--0--0--0--0--|

G|----------------------------------------------------------------|
D|----------------------------------------------------------------|
A|----------------------------------------------------------------|
D|-222-222-222-222-222-222-222-222-555-555-555-555-555-555-555-555|

G|----------------------------------------------------|
D|----------------------------------------------------|
A|----------------------------------------------------|
D|-4--4--4--4--4--4--4--4--7-7-7--7-7-7--7-7-7--7-7-7-|

G|---------------------------------------------------------------|
D|---------------------------------------------------------------|
A|---------------------------------------------------------------|
D|-2-22222---22222---22222---22222---22222---22222---22222---2222| (x2)
Добавлено: 29.12.2015
Другие материалы по этой песне:
  • Аккорды и текст

Страница создана 29.12.2015
http://primanota.ru/exemption/blood-heaven-chords.htm
Привет, Гость.
Предлагаем пройти революционный курс по гитаре.
Подарок от PrimaNota.Ru, забирай!