PrimaNota.ru - самый крупный в мире бесплатный архив песенных текстов, аккордов, табулатур и нот


Exciter - Violence & Force - текст песни, таба, видео

Регистрация Запомнить меня
Войти через:  Facebook Google Twitter Vk Yandex Mail.ru

Exciter - Violence & Force - текст песни, таба, видео

Печатать
Просмотров: 200
Band: EXCITER
Album: Violence & Force
Song: Violence & Force

Tuning: Standard
Riff 1
||------------------------------------------------------------||
||o----------------------------------------------------------o||
||------------------------------------------------------------||
||----9999-9999-9999---12-12-12-------------------------------||
||o---7777-7777-7777---10-10-10------------------------------o||
||------------------------------------------------------------||
Riff 2
||------------------------------------------------------------||
||o----------------------------------------------------------o||
||------------------------------------------------------------||
||------------------------------------------------------------||
||o----------------------------------------------------------o||
||---5555-5555-5555-5555--------------------------------------||
Riff 3
||------------------------------------------------------------||
||o----------------------------------------------------------o||
||------------------------------------------------------------||
||------------------------------------------------------------||
||o--5555-5555-5555-5555-------------------------------------o||
||------------------------------------------------------------||
Riff 4
|--------------------------------------------------------------|
|--------------------------------------------------------------|
|--------------------------------------------------------------|
|---5-5---7-7---9-9--------------------------------------------|
|---3-3---5-5---7-7--------------------------------------------|
|--------------------------------------------------------------|
Riff 5
||------------------------------------------------------------||
||o----------------------------------------------------------o||
||------------------------------------------------------------||
||---9999-9999-7777-------------------------------------------||
||o--7777-7777-5555------------------------------------------o||
||------------------------------------------------------------||
Fill 1
|--------------------------------------------------------------|
|--------------------------------------------------------------|
|--------------------------------------------------------------|
|---9-------12---9---------------------------------------------|
|---7---9---10---7---------------------------------------------|
|-------7------------------------------------------------------|
Riff 6
||------------------------------------------------------------||
||o----------------------------------------------------------o||
||------------------------------------------------------------||
||---9999-9999-9999----12---7---------------------------------||
||o--7777-7777-7777----10---5--------------------------------o||
||------------------------------------------------------------||
Riff 7
||------------------------------------------------------------||
||o----------------------------------------------------------o||
||------------------------------------------------------------||
||---11-11-11-11---11-11-11-11---11-11-11-11---14---9---------||
||o--9--9--9--9----9--9--9--9----9--9--9--9----12---7--------o||
||------------------------------------------------------------||
Fill 2
|--------------------------------------------------------------|
|--------------------------------------------------------------|
|--------------------------------------------------------------|
|---9-9-9---9---(9)--------------------------------------------|
|---7-7-7---7---(7)--------------------------------------------|
|--------------------------------------------------------------|

END

Full Score Arrangement:
Riff 1: 9
Riff 2: 2
Riff 1: 4
Riff 2: 2
Riff 1: 4
Riff 3: 2
Riff 1: 4
Riff 4: 1
Riff 5: 2
Riff 4: 1
Riff 5: 2
Riff 4: 1
Riff 5: 2
Riff 4: 1
Fill 1: 1
Riff 2: 2
Riff 1: 4
Riff 2: 2
Riff 1: 4
Riff 3: 2
Riff 1: 4
Riff 4: 1
Riff 5: 2
Riff 4: 1
Riff 5: 2
Riff 4: 1
Riff 5: 2
Riff 4: 1
Fill 1: 1
Riff 6: 8
Riff 7: 4
Riff 6: 4
Riff 1: 4
Riff 2: 2
Riff 1: 4
Riff 2: 2
Riff 1: 4
Riff 3: 2
Riff 1: 4
Riff 4: 1
Riff 5: 2
Riff 4: 1
Riff 5: 2
Riff 4: 1
Riff 5: 2
Riff 4: 1
Fill 2: 1
Fill 1: 1
END
Добавлено: 07.07.2012
Другие материалы по этой песне:

Страница создана 05.03.2012
http://primanota.ru/exciter/violence-and-force-chords.htm
Привет, Гость.
Предлагаем пройти революционный курс по гитаре.
Подарок от PrimaNota.Ru, забирай!