PrimaNota.ru - самый крупный в мире бесплатный архив песенных текстов, аккордов, табулатур и нот


Exciter - The Dark Command - текст песни, бас-таба, видео

Регистрация Запомнить меня
Войти через:  Facebook Google Twitter Vk Yandex Mail.ru

Exciter - The Dark Command - текст песни, бас-таба, видео

Печатать
Просмотров: 120
Уроки эстрадного вокала в Санкт-Петербурге
                             EXCITER - THE DARK COMMAND

Tabbed by: Rottney (reconssuck)
E-mail: reconssuck@hotmail.de

Artist: Exciter
Song: The Dark Command
Album: The Dark Command (1997)
Bassist: Marc Charron


Tuning: Standard (EADG)

Intro:

G|---------------------------------------------------------------------------|
D|---------------------------------------------------------------------------|
A|---------------------------------------------------------------------------|
E|--3--3--3--3--3--3-00000000000000---3--3--3--3--3--3-00000000000000--------|

(play the 0's as often as you need to)
repeat the riff 2 times

On the last time instead of playing the 0's (after the 3's) you play the Verse which is:

Verse 1:

G|---------------------------------------------------------------------------|
D|---------------------------------------------------------------------------|
A|---------------------------------------------------------------------------|
E|--5-777777777777----5-777777777777----5-777777777777----5-777777777777-----|
("In the Still of the Night")

(repeat as many times necessary)

Verse 2:

G|---------------------------------------------------------------------------|
D|---------------------------------------------------------------------------|
A|---------------------------------------------------------------------------|
E|--0--2--3--5555555555555---5--7--8--9999999999999--------------------------|
("...who'll kill till he's done")

(this is played once then it goes to the chorus)

Chorus:

G|---------------------------------------------------------------------------|
D|---------------------------------------------------------------------------|
A|---------------------------------------------------------------------------|
E|--00000000000000-3--3--3--3--3--3-00000000000000-3--3--3--3--3--3----------|
("Dark!...Command!")

(this is also played twice then it goes back to verse 1)

Verse 1:

G|---------------------------------------------------------------------------|
D|---------------------------------------------------------------------------|
A|---------------------------------------------------------------------------|
E|--5-777777777777----5-777777777777----5-777777777777----5-777777777777-----|
("The Savage Beast was born in Hell")

(again repeat as many times necessary)

Verse 2:

G|---------------------------------------------------------------------------|
D|---------------------------------------------------------------------------|
A|---------------------------------------------------------------------------|
E|--0--2--3--5555555555555---5--7--8--9999999999999--------------------------|
("Can make him fall")

(played once then again to the chorus)


Chorus:

G|---------------------------------------------------------------------------|
D|---------------------------------------------------------------------------|
A|---------------------------------------------------------------------------|
E|--00000000000000-3--3--3--3--3--3-00000000000000-3--3--3--3--3--3----------|
("Dark!...Command!")

(played twice then go to the interlude)

Interlude:


G|---------------------------------------------------------------------------|
D|---------------------------------------------------------------------------|
A|---------------------------------------------------------------------------|
E|--22222222-3-3-0-0--22222222-3-3-0-0---22222222-3-3-0-0--22222222-3-3-5-5--|
("Ripping at the seams")

(play the interlude once)


Solo Backing Riff:

G|---------------------------------------------------------------------------|
D|---------------------------------------------------------------------------|
A|---------------------------------------------------------------------------|
E|--3--3--3--3--3--3-00000000000000---3--3--3--3--3--3-00000000000000--------|

(play this as many times needed while ricci is soloing then play the Verse Riff again)

Verse 1:

G|---------------------------------------------------------------------------|
D|---------------------------------------------------------------------------|
A|---------------------------------------------------------------------------|
E|--5-777777777777----5-777777777777----5-777777777777----5-777777777777-----|
("The shallow graves await the souls")

(repeat as many times neccesary)

Verse 2:

G|---------------------------------------------------------------------------|
D|---------------------------------------------------------------------------|
A|---------------------------------------------------------------------------|
E|--0--2--3--5555555555555---5--7--8--9999999999999--------------------------|
("Live or survive")

(play it once and go to the final chorus)


Chorus:

G|---------------------------------------------------------------------------|
D|---------------------------------------------------------------------------|
A|---------------------------------------------------------------------------|
E|--00000000000000-3--3--3--3--3--3-00000000000000-3--3--3--3--3--3----------|
("Dark!...Command!")


Outro:

G|---------------------------------------------------------------------------|
D|---------------------------------------------------------------------------|
A|---------------------------------------------------------------------------|
E|--3--3--3--3--3--5---3--3--3--3--3--5---3--3--3--3--3--5--0----------------|


(repeat the outro as many times needed)




Please rate the tab and leave a comment i really apprecciate it.
Constructive Critics and Feedback is also welcome!
Tabbed this by watching Exciter Live at MS Metal Therapy 2012
Have Fun Playing!
Добавлено: 25.06.2015
Другие материалы по этой песне:
  • Аккорды и текст

Страница создана 18.05.2012
http://primanota.ru/exciter/the-dark-command-chords.htm
Привет, Гость.
Предлагаем пройти революционный курс по гитаре.
Подарок от PrimaNota.Ru, забирай!