PrimaNota.ru - самый крупный в мире бесплатный архив песенных текстов, аккордов, табулатур и нот


Exciter - Scream In The Night - текст песни, таба, видео

Регистрация Запомнить меня
Войти через:  Facebook Google Twitter Vk Yandex Mail.ru

Exciter - Scream In The Night - текст песни, таба, видео

Печатать
Просмотров: 260
Band: EXCITER
Album: Violence & Force
Song: Scream in the Night

Tuning: Standard
Riff 1                                         Whammy Bar Dip 3x
||---------------------------------------------------------------
||o--------------------------------------------------------------
||---------------------------------------------------------------
||-----------------------------------------7---)-)-)-------------
||o-----------------2----------------------5---)-)-)-------------
||---0000-0000-0000--320-(0)-000-320-(0)-------------------------
     .... .... .... ...      ...               Whammy Bar Dip 3x
-----------------------------------------------------------------||
----------------------------------------------------------------o||
-----------------------------------------------------------------||
-------------------------------------------5---)-)-)-------------||
--------------------2----------------------3---)-)-)------------o||
-----0000-0000-0000--320 (0)-000-320-(0)-------------------------||
     .... .... .... ...      ...
Riff 2
||-------------------------------------------------------------------||
||o-----------------------------------------------------------------o||
||-------------------------------------------------------------------||
||-------------9-12---12-11-12-11-9-------------9-14---14-11-12-11-9-||
||o------------7-10---10-9--10-9--7-------------7-12---12-9--10-9--7o||
||---0000-0000------------------------0000-0000----------------------||
Riff 3
||-------------------------------------------------------------------||
||o-----------------------------------------------------------------o||
||-------------------------------------------------------------------||
||---9-12-11-12-14---9-12-11-12-9---(9)------------------------------||
||o--7-10-9--10-12---7-10-9--10-7---(7)-----------------------------o||
||-------------------------------------------------------------------||
Fill 1  Slight Whammy Bar Dive
|---------------------------------------------------------------------|
|---------------------------------------------------------------------|
|---------------------------------------------------------------------|
|---(9)---------------------------------------------------------------|
|---(7)---------------------------------------------------------------|
|---------------------------------------------------------------------|
Riff 4
||-------------------------------------------------------------------||
||o-----------------------------------------------------------------o||
||-------------------------------------------------------------------||
||---5---7---9------5---12---11--12---9------------------------------||
||o--3---5---7------3---10---9---10---7-----------------------------o||
||-------------------------------------------------------------------||
Fill 2
|---------------------------------------------------------------------|
|---------------------------------------------------------------------|
|---------------------------------------------------------------------|
|---5---4---5---2-----------------------------------------------------|
|---3---2---3---0------5---4---5---2---(2)----------------------------|
|----------------------3---2---3---0---(0)----------------------------|

END

Full Score Arrangement:
Riff 1: 3
Riff 2: 4
Riff 3: 1
Fill 1: 1
Riff 2: 2
Riff 4: 2
Riff 2: 4
Riff 3: 1
Fill 1: 1
Riff 2: 2
Riff 4: 2
Riff 2: 1
Riff 3: 8
Fill 2: 1
END
Добавлено: 09.06.2012
Другие материалы по этой песне:
  • Аккорды и текст

Страница создана 28.02.2012
http://primanota.ru/exciter/scream-in-the-night-chords.htm
Привет, Гость.
Предлагаем пройти революционный курс по гитаре.
Подарок от PrimaNota.Ru, забирай!