PrimaNota.ru - самый крупный в мире бесплатный архив песенных текстов, аккордов, табулатур и нот


Exciter - Massacre Mountain - текст песни, бас-таба, видео

Регистрация Запомнить меня
Войти через:  Facebook Google Twitter Vk Yandex Mail.ru

Exciter - Massacre Mountain - текст песни, бас-таба, видео

Печатать
Просмотров: 69
                             EXCITER - Massacre Mountain


Tabbed by: Rottney (reconssuck)
E-mail: reconssuck@hotmail.de

Artist: Exciter
Song: Massacre Mountain
Album: Thrash Speed Burn (2008)
Bassist: Rob "Clammy" Cohen



Tuning: Standard (EADG)


Intro:

G|---------------------------------------------------------------------------|
D|---------------------------------------------------------------------------|
A|---------------------------------------------------------------------------|
E|--2-2-2-2-2-2-2-2-2-2-2-2-2-2--3--5---2-2-2-2-2-2-2-2-2-2-2-2-2-2--3--5----|

(play as many times needed)

Verse:

G|---------------------------------------------------------------------------|
D|---------------------------------------------------------------------------|
A|--2-3-0-2-2-2-2-2-2-2-2-2-2-2----2-3-0-2-2-2-2-2-2-2-2-2-2-2---------------|
E|---------------------------------------------------------------------------|
("Locked in the Dark")

(repeat as many times necessary)



Verse 2:

G|---------------------------------------------------------------------------------------------------------|
D|---------------------------------------------------------------------------------------------------------|
A|--7-7-7-7-7-7-7-7-7-7-7-7-7-7-7-7---9-9-9-9-9-9-9-9-9-9-9-9-9-9-9-9---10-10-10-10-10-10-10-10-10-10-10---|
E|---------------------------------------------------------------------------------------------------------|
("Chamber the Prisoners")

G|---------------------------------------------------------------------------------------------------------|
D|---------------------------------------------------------------------------------------------------------|
A|--12-12-12-12-12-12-12-12-12-12-12-12-12-12-12-12---14-14-14-14-14-14-14-14-14-14-14-14-14-14-14-14------|
E|---------------------------------------------------------------------------------------------------------|

(play this twice then go back to verse 1)


Verse:

G|---------------------------------------------------------------------------|
D|---------------------------------------------------------------------------|
A|--2-3-0-2-2-2-2-2-2-2-2-2-2-2----2-3-0-2-2-2-2-2-2-2-2-2-2-2---------------|
E|---------------------------------------------------------------------------|
("Commander of Rage")

(again repeat as many times necessary then go to Chorus )

Chorus :

G|---------------------------------------------------------------------------|
D|---------------------------------------------------------------------------|
A|---------------------------------------------------------------------------|
E|--2--3--2--2-2-2-2-2-2-2-2-------------------------------------------------|
("Massacre")

(repeat as many times needed but on the last time play this)

Chorus Continuation:

G|---------------------------------------------------------------------------|
D|---------------------------------------------------------------------------|
A|---------------------------------------------------------------------------|
E|--2--3--2--2-2-2-2-2-2-2-2--0-0-0-0-0-0-0-0-12-12-12-12-12-12-12-----------|

(this is played the last time before it goes back to the verse)

Verse 1:

G|---------------------------------------------------------------------------|
D|---------------------------------------------------------------------------|
A|--2-3-0-2-2-2-2-2-2-2-2-2-2-2----2-3-0-2-2-2-2-2-2-2-2-2-2-2---------------|
E|---------------------------------------------------------------------------|
("Brave and Enforced")

Verse 2 (differently played than the first verse 2)

G|---------------------------------------------------------------------------------------------------------|
D|-----------------------------------------------------7-7--5-5--------------------------------------------|
A|--7-7-7-7-7-7-7-7-7-7-7-7-7-7-7-7---5-5-5-5-5-5-5-5-----------7-7--5-5---3-3-3-3-3-3-3-3--0-0-2-2-3-3-5-5|
E|---------------------------------------------------------------------------------------------------------|
("Chamber the Prisoners")

G|---------------------------------------------------------------------------------------------------------|
D|-------------------7-7--5-5----------------------------9-9--7-7------------------------------------------|
A|--5-5-5-5-5-5-5-5-----------7-7--5-5---7-7-7-7-7-7-7-7----------9-9--7-7---------------------------------|
E|---------------------------------------------------------------------------------------------------------|


G|---------------------------------------------------------------------------------------------------------|
D|-------------------7-7--5-5------------------------------------------------------------------------------|
A|--5-5-5-5-5-5-5-5-----------7-7--5-5---3-3-3-3-3-3-3-3--0-0--2-2-3-3-5-5---------------------------------|
E|---------------------------------------------------------------------------------------------------------|

G|---------------------------------------------------------------------------------------------------------|
D|-------------------7-7--5-5------------------------------------------------------------------------------|
A|--5-5-5-5-5-5-5-5-----------7-7--5-5---------------------------------------------------------------------|
E|---------------------------------------------------------------------------------------------------------|

(play this once then play the solo backing riff)

Solo Backing Riff 1: (same as verse 1)

G|---------------------------------------------------------------------------|
D|---------------------------------------------------------------------------|
A|--2-3-0-2-2-2-2-2-2-2-2-2-2-2----2-3-0-2-2-2-2-2-2-2-2-2-2-2---------------|
E|---------------------------------------------------------------------------|

(repeat as many times needed)

Solo Backing Riff 2: (same as chorus 1)


G|---------------------------------------------------------------------------|
D|---------------------------------------------------------------------------|
A|---------------------------------------------------------------------------|
E|--2--3--2--2-2-2-2-2-2-2-2-------------------------------------------------|

(again repeat as many times neccesary then go back to verse 1)

Verse 1:

G|---------------------------------------------------------------------------|
D|---------------------------------------------------------------------------|
A|--2-3-0-2-2-2-2-2-2-2-2-2-2-2----2-3-0-2-2-2-2-2-2-2-2-2-2-2---------------|
E|---------------------------------------------------------------------------|
("Locked in the Dark")

(play as many times needed then play the final chorus)

Chorus:

G|---------------------------------------------------------------------------|
D|---------------------------------------------------------------------------|
A|---------------------------------------------------------------------------|
E|--2--3--2--2-2-2-2-2-2-2-2-------------------------------------------------|
("Massacre")

Final Chorus Continuation:

G|---------------------------------------------------------------------------|
D|---------------------------------------------------------------------------|
A|---------------------------------------------------------------------------|
E|--2--3--2--2-2-2-2-2-2-2-2--0-0-0-0-0-0-0-0-12-12-12-12-12-12-12---2-3-2---|


That's the whole Song.
Have Fun Playing!
Добавлено: 25.06.2015
Вам также может быть интересно:
Другие материалы по этой песне:
  • Аккорды и текст

Страница создана 07.11.2013
http://primanota.ru/exciter/massacre-mountain-chords.htm
Привет, Гость.
Предлагаем пройти революционный курс по гитаре.
Подарок от PrimaNota.Ru, забирай!