PrimaNota.ru - самый крупный в мире бесплатный архив песенных текстов, аккордов, табулатур и нот


Example - Won't Believe The Fools - текст песни, таба, видео

Регистрация Запомнить меня
Войти через:  Facebook Google Twitter Vk Yandex Mail.ru

Example - Won't Believe The Fools - текст песни, таба, видео

Печатать
Просмотров: 250
Уроки эстрадного вокала в Санкт-Петербурге
Авторы: Joshua Harvey, David Stewart, Samuel Wire, Elliot Gleave

-------------------------------------------------------------------------------
                             SONG NAME - Band Name
-------------------------------------------------------------------------------
Tabbed by:
E-mail:

Tuning:


                                   Intro


e|-13-13-13-13-12-12-12-12-13-13-13-13-12-12-12-12-13-13-13-13-15-15-15-15---|
B|---------------------------------------------------------------------------|
G|---------------------------------------------------------------------------|
D|---------------------------------------------------------------------------|
A|---------------------------------------------------------------------------|
E|---------------------------------------------------------------------------|
  they told me lies...
e|-12-12-12-12-10-10-10-10-----------------------------------------------|--|
B|-----------------------------------------------------------------------|--|
G|-----------------------------------------------------------------------|x3|
D|-----------------------------------------------------------------------|--|
A|-----------------------------------------------------------------------|--|
E|-----------------------------------------------------------------------|--|




 
                                  Verse

e|-13-12-5-10---13-12-5-10---13-12-15-13---13-12-5-10------------------------|
B|---------------------------------------------------------------------------|
G|---------------------------------------------------------------------------|
D|---------------------------------------------------------------------------|
A|---------------------------------------------------------------------------|
E|---------------------------------------------------------------------------|
  is there really anybody out there....






                                 Chorus

e|--3~---15~---12~---13~---12~---------------------------------------------|x4|
B|-------------------------------------------------------------------------|x4|
G|-------------------------------------------------------------------------|x4|
D|-------------------------------------------------------------------------|x4|
A|-------------------------------------------------------------------------|x4|
E|-------------------------------------------------------------------------|x4|
  we wont believe the fools although....





                                 Verse
 
e|---------------------------------------------------------------------------|
B|---------------------------------------------------------------------------|
G|---------------------------------------------------------------------------|
D|---------------------------------------------------------------------------|
A|---5-5-5-5-5-5-5--5-5--5/3~---12-12-12-12-12-12-12--12-12--12/15---5-5-5-5-|
E|---------------------------------------------------------------------------|
  they told me stats...
e|---------------------------------------------------------------------------|
B|---------------------------------------------------------------------------|
G|---------------------------------------------------------------------------|
D|---------------------------------------------------------------------------|
A|-5-5-5---5-5-5/3---12-12-12-12-12-12-12---12-12-12/15----------------------|
E|---------------------------------------------------------------------------|


                                  Verse

e|-13-12-5-10---13-12-5-10---13-12-15-13---13-12-5-10------------------------|
B|---------------------------------------------------------------------------|
G|---------------------------------------------------------------------------|
D|---------------------------------------------------------------------------|
A|---------------------------------------------------------------------------|
E|---------------------------------------------------------------------------|
  is there really anybody out there....





                                 Chorus

e|--3~---15~---12~---13~---12~---------------------------------------------|x4|
B|-------------------------------------------------------------------------|x4|
G|-------------------------------------------------------------------------|x4|
D|-------------------------------------------------------------------------|x4|
A|-------------------------------------------------------------------------|x4|
E|-------------------------------------------------------------------------|x4|
  we wont believe the fools although....




                                  Verse

e|-13-13-13-13-12-12-12-12-13-13-13-13-12-12-12-12-13-13-13-13-15-15-15-15---|
B|---------------------------------------------------------------------------|
G|---------------------------------------------------------------------------|
D|---------------------------------------------------------------------------|
A|---------------------------------------------------------------------------|
E|---------------------------------------------------------------------------|
  i don't know if the things that they told me are true.....
e|-12-12-12-12-10-10-10-10-----------------------------------------------|--|
B|-----------------------------------------------------------------------|--|
G|-----------------------------------------------------------------------|x3|
D|-----------------------------------------------------------------------|--|
A|-----------------------------------------------------------------------|--|
E|-----------------------------------------------------------------------|--|




                                 Chorus

e|--3~-15~---12~---13~-----12~---------------------------------------------|x4|
B|-------------------------------------------------------------------------|x4|
G|-------------------------------------------------------------------------|x4|
D|-------------------------------------------------------------------------|x4|
A|-------------------------------------------------------------------------|x4|
E|-------------------------------------------------------------------------|x4|
  we wont believe the fools although....




                              Instrumental
 
e|---------------------------------------------------------------------------|
B|---------------------------------------------------------------------------|
G|---------------------------------------------------------------------------|
D|---------------------------------------------------------------------------|
A|---5-5-5-5-5-5-5--5-5--5/3~---12-12-12-12-12-12-12--12-12--12/15---5-5-5-5-|
E|---------------------------------------------------------------------------|
  
e|---------------------------------------------------------------------------|
B|---------------------------------------------------------------------------|
G|---------------------------------------------------------------------------|
D|---------------------------------------------------------------------------|
A|-5-5-5---5-5-5/3---12-12-12-12-12-12-12---12-12-12/15----------------------|
E|---------------------------------------------------------------------------|




                                   Verse

e|-13-13-13-13-12-12-12-12-13-13-13-13-12-12-12-12-13-13-13-13-15-15-15-15---|
B|---------------------------------------------------------------------------|
G|---------------------------------------------------------------------------|
D|---------------------------------------------------------------------------|
A|---------------------------------------------------------------------------|
E|---------------------------------------------------------------------------|
  i don't know if the things that they told me are true.....
e|-12-12-12-12-10-10-10-10-----------------------------------------------|--|
B|-----------------------------------------------------------------------|--|
G|-----------------------------------------------------------------------|x3|
D|-----------------------------------------------------------------------|--|
A|-----------------------------------------------------------------------|--|
E|-----------------------------------------------------------------------|--|




                                  Outro

e|-13--13--13--13--12--12--12--12--13--13--13--13--12--12--12--12--13--13--13|
B|---10--10--10--10--10--10--10--10--10--10--10--10--10--10--10--10--10--10--|
G|---------------------------------------------------------------------------|
D|---------------------------------------------------------------------------|
A|---------------------------------------------------------------------------|
E|---------------------------------------------------------------------------|
  
e|-13--13--15--15--15--15--12--12--12--12--10--10--10--10----------------|--|
B|---10--10--10--10--10--10--10--10--10--10--10--10--10--10~--------------|--|
G|-----------------------------------------------------------------------|x2|
D|-----------------------------------------------------------------------|--|
A|-----------------------------------------------------------------------|--|
E|-----------------------------------------------------------------------|--|


************************************

| /   slide up
| \   slide down
| h   hammer-on
| p   pull-off
| ~   vibrato
| +   harmonic
| x   Mute note
| b   Bend
| pb  Pre-bend
| br  Bend release
| pbr Pre-bend release
| brb Bend release bend

************************************
Добавлено: 22.07.2015
Другие материалы по этой песне:
  • Аккорды и текст

Страница создана 10.01.2014
http://primanota.ru/example/wont-believe-the-fools-chords.htm
Привет, Гость.
Предлагаем пройти революционный курс по гитаре.
Подарок от PrimaNota.Ru, забирай!