PrimaNota.ru - самый крупный в мире бесплатный архив песенных текстов, аккордов, табулатур и нот


Ex-votos - Subtilezas Porno-populares - таба, видео

Регистрация Запомнить меня
Войти через:  Facebook Google Twitter Vk Yandex Mail.ru

Ex-votos - Subtilezas Porno-populares - таба, видео

Печатать
Просмотров: 83
Уроки эстрадного вокала в Санкт-Петербурге
En:The intro it's something like this
Pt:A introdução é algo do genero disto
(Intro)
E|-3-3-----------------------3-3-------------|
A|------5-6-5--3-3--5-6-5-6-------5-6-5--3-3-| and than the drum play a intro
D|------7-8-7-------7-8-7-8-------7-8-7------| e ai a bateria faz a intro 
G|-------------------------------------------|
B|-------------------------------------------|
e|-------------------------------------------|

After that you play the following riff until they say "PIMBA!!!"
Depois disso vai ficar tocando o seguinte riff até o gajo dizer "PIMBA!!!"
(1ºriff)
E|---3-3--------------------------|
A|--------5-6-5--3-3--5-6-5-6-----|
D|-º------7-8-7-------7-8-7-8--º--|
G|--------------------------------|
B|-º---------------------------º--|
e|--------------------------------|

When the son of a bitch say "PIMBA!!!" you play the following riff
Quando o filho da mãe disser "PIMBA!!!" vai tocar o seguinte riff
(2ºriff)
E|---3-3-3-3---------------------------|
A|---5-5-5-5-1-1-1-1-3-3-3-3-1-1-3-1---|
D|-º---------3-3-3-3-5-5-5-5-3-3-5-3-º-|
G|-------------------------------------|
B|-º---------------------------------º-|
e|-------------------------------------|

after that he say "Visão, Ilusão...." then you play this
Depois disso ele vai dizer "Visão, ilusão..." ai vais tocar isto
(3ºriff)
E|---3-3--------------------------|
A|--------5-6-5--3-3--5-6-5-6-----|
D|-º----------------------------º-|
G|--------------------------------|
B|-º----------------------------º-|
e|--------------------------------|

Play in this order:
Toca nesta ordem:

Intro- 1x
1º riff- until he say "Pimba!!!" / até ele dizer "Pimba!!!"
2º riff- 3x
3º riff- until he say "C'est la vie" / até ele dizer "C'est la vie"
2º riff- until the end / até ao fim

http://palcoprincipal.sapo.pt/exvotos
Добавлено: 16.09.2013
Другие материалы по этой песне:
  • Аккорды и текст

Страница создана 16.09.2013
http://primanota.ru/ex-votos/subtilezas-porno-populares-chords.htm
Привет, Гость.
Предлагаем пройти революционный курс по гитаре.
Подарок от PrimaNota.Ru, забирай!