PrimaNota.ru - самый крупный в мире бесплатный архив песенных текстов, аккордов, табулатур и нот


Evoke The Speechless - New Song - бас-таба, видео

Регистрация Запомнить меня
Войти через:  Facebook Google Twitter Vk Yandex Mail.ru

Evoke The Speechless - New Song - бас-таба, видео

Печатать
Просмотров: 33
-------------------------------------------------------------------------------
                             New Song - Evoke The Speechless
-------------------------------------------------------------------------------
Tabbed by: Randon Ladner
E-mail: randonwyatt@comcast.net

Tuning: Standard

I didn't tab the whole song in order.  I just wrote the tab for each part.  Here's the correct order:
Intro Chorus x2
Verse x5
Chorus x2
Verse x5
Chorus x1
Pre-Bridge
Bridge
(then there's the quiet part where there's only people singing)
Chorus (through the solo until the end)

Intro Chorus (starts with the lead guitar):
G|-7-7-7-7-7-7--6-6-6-6-6-6--4-4-4-4-4-4--2-2-2-2-2-2--4-4-4--6-6-6----------|
D|---------------------------------------------------------------------------|
A|---------------------------------------------------------------------------|
E|---------------------------------------------------------------------------|

Verse
G|---------------------------------------------------------------------------|
D|---------------------------------------------------------------------------|
A|-----14\-----12\-----10\-----9\--------------------------------------------|
E|-7-7-----5-5-----3-3-----2-2-----------------------------------------------|

Chorus
G|-7-7-7-7-7-7--6-6-6-6-6-6--4-4-4-4-4-4--2-2-2-2-2-2--4-4-4--6-6-6----------|
D|---------------------------------------------------------------------------|
A|---------------------------------------------------------------------------|
E|---------------------------------------------------------------------------|

Pre-Bridge
G|---------------------------------------------------------------------------|
D|---------------------------------------------------------------------------|
A|-----14\-----12\-----10\-----9\--------------------------------------------|
E|-7-7-----5-5-----3-3-----2-2-----------------------------------------------|

Bridge
G|---------------------------------------------------------------------------|
D|-------12------12----12-----4-------7---7-------12-------12----12-----7----|
A|---------------------------------------------------------------------------|
E|-10-10---10-10----10----2-2---2-2/5---5---10-10----10-10----10----5-5------|

G|------------|--------------------------|-----------------------------------|
D|-----5---5--|-Play 2 times then this->-|-12--------------------------------|
A|------------|--------------------------|-----------------------------------|
E|-5-3---3----|--------------------------|-10--------------------------------| 


| /  slide up
| \  slide down
| h  hammer-on
| p  pull-off
| ~  vibrato
| +  harmonic
| x  Mute note
===============================================================================
Добавлено: 27.12.2015
Вам также может быть интересно:
Другие материалы по этой песне:
  • Аккорды и текст

Страница создана 27.12.2015
http://primanota.ru/evoke-speechless/new-song-chords.htm
Привет, Гость.
Предлагаем пройти революционный курс по гитаре.
Подарок от PrimaNota.Ru, забирай!