PrimaNota.ru - самый крупный в мире бесплатный архив песенных текстов, аккордов, табулатур и нот


Evoke The Speechless - Hero - бас-таба, видео

Регистрация Запомнить меня
Войти через:  Facebook Google Twitter Vk Yandex Mail.ru

Evoke The Speechless - Hero - бас-таба, видео

Печатать
Просмотров: 61
-------------------------------------------------------------------------------
                             Hero - Evoke the Speechless
-------------------------------------------------------------------------------
Tabbed by: Randon Ladner
E-mail: randonwyatt@comcast.net

Tuning: Standard

Here's the parts of the song in order:
Intro pt. 1
Intro pt. 2
Verse
Chorus 
Verse
Bridge
Outro/Guitar Solos

I just put the notes for each part
Listen to the song to figure out picking patterns to match the guitar

Intro first part:
G|---------------------------------------------------------------------------|
D|---------------------------------------------------------------------------|
A|---------------------------------------------------------------------------|
E|-7--5--3--5----------------------------------------------------------------|

Intro second part:
G|---------------------------------------------------------------------------|
D|---------------------------------------------------------------------------|
A|---------------------------------------------------------------------------|  x2
E|-7--5--3--10--7--5--7--5--3-2--10--7--5-4----------------------------------|

Verse:
G|---------------------------------------------------------------------------|
D|---------------------------------------------------------------------------|
A|---------------------------------------------------------------------------|
E|-19-14-15-17-10-10-9-------------------------------------------------------|

G|---------------------------------------------------------------------------|
D|---------------------------------------------------------------------------|
A|---------------------------------------------------------------------------|
E|-7--2--3--7--2--3--7--2--3--5--10-10--9------------------------------------|

Chorus:
G|---------------------------------------------------------------------------|
D|---------------------------------------------------------------------------|
A|---------------------------------------------------------------------------|
E|-7--3-2--3--7--3-2--3--7--3-2--3-------------------------------------------|

G|---------------------------------------------------------------------------|
D|---------------------------------------------------------------------------|
A|---------------------------------------------------------------------------|
E|-5--10--9--5--2--3--5--10--9--5--2--3--------------------------------------|

Bridge:
G|---------------------------------------------------------------------------|
D|---------------------------------------------------------------------------|
A|---------------------------------------------------------------------------|
E|-7--3-2--3--7--3-2--3--7--3-2--3-------------------------------------------|

G|---------------------------------------------------------------------------|
D|---------------------------------------------------------------------------|
A|---------------------------------------------------------------------------|
E|-5--7--2-3--2--5--7--2-3--2------------------------------------------------|

Outro/Solos:
G|---------------------------------------------------------------------------|
D|---------------------------------------------------------------------------|
A|---------------------------------------------------------------------------|
E|-7--5--3--10--7--5---------------------------------------------------------|


| /  slide up
| \  slide down
| h  hammer-on
| p  pull-off
| ~  vibrato
| +  harmonic
| x  Mute note
===============================================================================
Добавлено: 15.06.2016
Вам также может быть интересно:
Другие материалы по этой песне:
  • Аккорды и текст

Страница создана 15.06.2016
http://primanota.ru/evoke-speechless/hero-chords.htm
Привет, Гость.
Предлагаем пройти революционный курс по гитаре.
Подарок от PrimaNota.Ru, забирай!