PrimaNota.ru - самый крупный в мире бесплатный архив песенных текстов, аккордов, табулатур и нот


Evita - The Elysium Fields - таба, видео

Регистрация Запомнить меня
Войти через:  Facebook Google Twitter Vk Yandex Mail.ru

Evita - The Elysium Fields - таба, видео

Печатать
Просмотров: 111
band: www.myspace.com/evitaband
me: www.myspace.com/hyperuntilidie

PLEASE RATE AND CMT

Evita - The Elysium Fields

this was taken directly from their myspace blog
so its definitely correct.


GUITAR ONE

Intro (Beginning– 20secs)
G – E – B – D – E – G – B – B – E – G


(20secs – 51secs)
C#:-------------------------------------------------------------------|
G#:-------------------------------------------------------------------|
E :-77777777777777775555555555555555----------------------------------|
B :-xxxxxxxxxxxxxxxx333333333333333388888~--88888~--7777777755553333--|
F#:-5555555555555555333333333333333388888~--88888~--7777777755553333--|
B :-----------------333333333333333388888~--88888~--7777777755553333--|



(51secs – 58secs)
C#:-------------------------------------------------------------------|
G#:-------------------------------------------------------------------|
E :-7----------------------------7------------------x-----------------|
B :-x----------------------------x------------------x-----------------|
F#:-5----------------------------5------------------x-----------------|
B :-------------------------------------------------------------------|


(58secs – 1min 28secs)
C#:-------------------------------------------------------------------|
G#:-------------------------------------------------------------------|
E :-------------------------------------------------------------------|
B :----------578-10-8-7-8-7-5---------578-----------------------------|
F#:-------578----------------------578-----7h8p7--5h7ph---------------|
B :-00-0-0-------------------00-0-0------88-----55--------------------| x4

(ON THE FOURTH TIME, MUTE ON B8 AND THEN B5. LISTEN THE SONG TO UNDERSTAND THIS MORE)

(1min 29secs – 1min 38secs)
C#:-------------------------|-----------------------------------------|
G#:-------------------------|-----------------------------------------|
E :-------------------------|-----------------------------------------|
B :-------------------------|----------------87-----------------------|
F#:---5-7-7h8--7h8p7--5h7p5-|---5-7-7h8-10p8---87---------------------|
B :-00-0-0---88-----55------|-00-0-0---0----0-------------------------|
x4

C#:--------------------|----------------------------------------------|
G#:--------------------|----------------------------------------------|
E :--------------------|----------------------------------------------|
B :--------------------|-----------87--7------------------------------|
F#:---5-7-7h8---78--57-|---5-7-7h8---10-1087--------------------------|
B :-00-0-0---810--58---|-00-0-0---0-----------------------------------|




(1min 39secs – 1min 48secs when the harmony comes in. See guitar 2 for harmony.)
C#:-------------------------------------------------------------------|
G#:-------------------------------------------------------------------|
E :-------------------------------------------------------------------|
B :-------------------------------------------------------------------|
F#:---5-7-7h8--7h8p7--5h7p5---5-7-7h8--7h8p7----5h7p5-----------------|
B :-00-0-0---88-----55------00-0-0---88-----1010----------------------|  x2



(Silence between 1min 49 and 1min 51)



(1min 51secs – 2mins 5secs)
C#:-------------------------------------------------------------------|
G#:-------------------------------------------------------------------|
E :-------------------------------------------------------------------|
B :-------------------------------------------------------------------|
F#:-0000----------00-0000----------0----------------------------------|
B :-0000----------00-0000----------0----------------------------------|



Chorus - (2mins 6secs - 2mins 35secs)
C#:-------------------------------------------------------------------|
G#:-------------------------------------------------------------------|
E :-------------------------------------------------------------------|
B :-14141414141212120000----0000--------------------------------------|
F#:-xxxxxxxxxxxxxxx50000----0000--------------------------------------|
B :-12121212101010100000----0000--------------------------------------|
x2 - The B8 chord for the first round is played by Guitar 2, come in on B5.


C#:-------------------------------------------------------------------|
G#:-------------------------------------------------------------------|
E :-------------------------------------------------------------------|
B :-141414141212121210101010999999991010101099999999------------------|
F#:-xxxxxxxxxxxxxxxxxxxxxxxxxxxxxxxxxxxxxxxxxxxxxxxx------------------|
B :-121212121010101088888888777777778888888877777777------------------|


(2mins 32secs - 2mins 52secs)

C#:-------------------------------------------------------------------|
G#:-------------------------------------------------------------------|
E :-------------------------------------------------------------------|
B :-----------|-7---------------10---8--7---------7-------------------|
F#:--GUITAR---|----10--7h8p7--------------7hp7------10--8-7h8p7-------|
B :--TWO-FILL-|--00--00-----8-88--888-88-8----0-00-0--00-0------------|

continued....
C#:-------------------------------------------------------------------|
G#:-------------------------------------------------------------------|
E :-------------------------------------------------------------------|
B :----7-8-7---8------------------------------------------------------|
F#:----------7---8p5--------------------------------------------------|
B :-5-5-5-5-5-5-5-----------------------------------------------------|


(2mins 52secs and 3mins 54)
Repeat what is played between 1min 29secs and 2mins 35secs, up the end of the chorus


(3mins 54secs - 3mins 56secs - Guitar Fill before solo)
C#:-------------------------------------------------------------------|
G#:-------------------------------------------------------------------|
E :-14-12-10-12-10-9--------------------------------------------------|
B :-xx-xx-x--xx-x--x--------------------------------------------------|
F#:-12-10-8--10-8--7--------------------------------------------------|
B :-------------------------------------------------------------------|


(3mins 56secs - 44mins 22secs - Rhythm guitar under the guitar solo)
C#:-------------------------------------------------------------------|
G#:-------------------------------------------------------------------|
E :-------------------------------------------------------------------|
B :-88888888555555550000----0000--------------------------------------|
F#:-88888888555555550000----0000--------------------------------------|
B :-88888888555555550000----0000--------------------------------------|



C#:-------------------------------------------------------------------|
G#:-------------------------------------------------------------------|
E :-------------------------------------------------------------------|
B :-888888885555555500000000333333335555555588888888------------------|
F#:-888888885555555500000000333333335555555588888888------------------|
B :-888888885555555500000000333333335555555588888888------------------|



(4mins 22secs - End)
C#:-------------------------------------------------------------------|
G#:-------------------------------------------------------------------|
E :------------------------------ADD-PINCH-HARMONICS-ON-E7-WHERE------|
B :------------------------------APPROPRIATE.-------------------------|
F#:-00-0-00-----00-0-03-0-5-------------------------------------------|
B :-00-0-00-----00-0-03-0-5-------------------------------------------|












GUITAR TWO

Intro (Beginning– 20secs)
G – E – B – D – E – G – B – B – E – G


(20secs – 51secs)
C#:-------------------------------------------------------------------|
G#:-------------------------------------------------------------------|
E :-1010101010101212121299999999999999991414141414~~~1414141414~~~----|
B :-xxxxxxxxxxxxxxxxxxxxxxxxxxxxxxxxxxxxxxxxxxxxxxxxxxxxxxxxxxx~~~----|
F#:-8888888888881010101077777777777777771212121212~~~1212121212~~~----|
B :-------------------------------------------------------------------|

continued...
C#:-------------------------------------------------------------------|
G#:-------------------------------------------------------------------|
E :-------------------------------------------------------------------|
B :-1212121212121212999912121212--------------------------------------|
F#:-xxxxxxxxxxxxxxxxxxxxxxxxxxxx--------------------------------------|
B :-1010101010101010777710101010--------------------------------------|





(51secs – 58secs)
C#:------------------------------------------------------------------|
G#:------------------------------------------------------------------|
E :-14--------------------------14-12-9-10---------x-----------------|
B :-xx---------------------------x-xx-x-x----------x-----------------|
F#:-12--------------------------12-10-7-8----------x-----------------|
B :------------------------------------------------------------------|


(58secs – 1min 28secs)
C#:-------------------------------------------------------------------|
G#:-------------------------------------------------------------------|
E :-------------------------------------------------------------------|
B :----------578-10-8-7-8-7-5---------578-----------------------------|
F#:-------578----------------------578-----7h8p7--5h7ph---------------|
B :-00-0-0-------------------00-0-0------88-----55--------------------| x4



(1min 29secs – 1min 38secs)
C#:-------------------------|-----------------------------------------|
G#:-------------------------|-----------------------------------------|
E :-------------------------|-----------------------------------------|
B :-------------------------|----------------87-----------------------|
F#:---5-7-7h8--7h8p7--5h7p5-|---5-7-7h8-10p8---87---------------------|
B :-00-0-0---88-----55------|-00-0-0---0----0-------------------------|
x4

C#:--------------------|----------------------------------------------|
G#:--------------------|----------------------------------------------|
E :--------------------|----------------------------------------------|
B :--------------------|-----------87--7------------------------------|
F#:---5-7-7h8---78--57-|---5-7-7h8---10-1087--------------------------|
B :-00-0-0---810--58---|-00-0-0---0-----------------------------------|




(1min 39secs – 1min 48secs when the harmony comes in. See guitar 2 for harmony.)
C#:-------------------------------------------------------------------|
G#:-------------------------------------------------------------------|
E :-------------------------------------------------------------------|
B :-------------------------------------------------------------------|
F#:---8-10-10h12--10h12p10--8h10p8---8-10-12--10h12p10--8h10p8--------|
B :-00-0--0-----88--------55-------00-0--0--88--------10--------------|
x2



(1min 49 and 1min 51)
C#:----------------------------------|
G#:----------------------------------|
E :----------------------------------|
B :----------------------------------|
F#:-0000----(DRUM-FILL)--------------|
B :-0000-----------------------------|



(1min 51secs – 2mins 5secs)
C#:-------------------------------------------------------------------|
G#:-------------------------------------------------------------------|
E :-------------------------------------------------------------------|
B :-------------------------------------------------------------------|
F#:-0000----------00-0000----------0----------------------------------|
B :-0000----------00-0000----------0----------------------------------|



Chorus - (2mins 6secs - 2mins 35secs)
C#:-------------------------------------------------------------------|
G#:-------------------------------------------------------------------|
E :-------------------------------------------------------------------|
B :-888888885555555500002h3p2------00002h3p2--------------------------|
F#:-88888888555555550000-----3p0---0000-----3p0-----------------------|
B :-88888888555555550000--------3/50000--------3/5--------------------|
x2 - The B8 chord for the first round is played by Guitar 2, come in on B5.


C#:-------------------------------------------------------------------|
G#:-------------------------------------------------------------------|
E :-------------------------------------------------------------------|
B :-888888885555555500000000333333335555555588888888------------------|
F#:-888888885555555500000000333333335555555588888888------------------|
B :-888888885555555500000000333333335555555588888888------------------|



(2mins 32secs - 2mins 52secs)

C#:-------------------------------------------------------------------|
G#:-------------------------------------------------------------------|
E :-------------------------------------------------------------------|
B :-------------7---------------10---8--7---------7-------------------|
F#:-8--------------10--7h8p7--------------7hp7------10--8-7h8p7-------|
B :---00-000-000-00--00-----8-88--888-88-8----0-00-0--00-0------------|

continued....
C#:-------------------------------------------------------------------|
G#:-------------------------------------------------------------------|
E :-------------------------------------------------------------------|
B :----7-8-7---8------------------------------------------------------|
F#:----------7---8p5--------------------------------------------------|
B :-5-5-5-5-5-5-5-----------------------------------------------------|


(2mins 52secs and 3mins 13secs)
Repeat what is played between 1min 29secs and 1min 48secs)


3mins 20secs - 3mins 27secs - All Palm-muted)
C#:-------------------------------------------------------------------|
G#:-------------------------------------------------------------------|
E :-------------------------------------------------------------------|
B :---8877557755------8877557755--55----------------------------------|
F#:-55----------887755----------88------------------------------------|
B :-------------------------------------------------------------------| x2


(3mins 27secs - 3mins 53secs - Repeat the chorus)



(3mins 56secs - 44mins 22secs - Solo)
C#:-------------------------------------------------------------------|
G#:-10-11-10----------------------------------------------------------|
E :----------12-10-9-7~--7-9-10~----10/12/10-9~---9h10p9-7---7--------|
B :----------------------------------------------------------*--------|
F#:-------------------------------------------------------------------|
B :-------------------------------------------------------------------|

continued...
C#:------------------------------------------------8------------------|
G#:---------------8~~~-------------5-6~---8~--10~---------------------|
E :--------7-9-10--------------5-7------------------------------------|
B :-7-8-10---------------5-7-8----------------------------------------|
F#:-------------------------------------------------------------------|
B :-------------------------------------------------------------------|

continued...
C#:-15p13p10-15p13p10-18p13p0-17-13p10-20-13-17/18/17-13p10-12~~~-----|
G#:----------------------------------------------------------^--------|
E :-------------------------------------------------------------------|
B :-------------------------------------------------------------------|
F#:-------------------------------------------------------------------|
B :-------------------------------------------------------------------|

C#:-12h13p12----------------------------------------------------------|
G#:---------15~-15p13-----13--------------------------------15-18~----|
E :--------------------15----15-14-12--------------14-15-17-----------|
B :-----------------------------------15-12~-15-17--------------------|
F#:-------------------------------------------------------------------|
B :-------------------------------------------------------------------|

C#:-20-17-------------------------------------------------------------|
G#:-------20-18-17-17h18p17-------------------------------------------|
E :-------------------------19-17-19~---------------------------------|
B :-------------------------------0~----------------------------------|
F#:-------------------------------0~----------------------------------|
B :-------------------------------0~----------------------------------|


(4mins 22secs - End)
C#:-------------------------------------------------------------------|
G#:-------------------------------------------------------------------|
E :------------------------------ADD-PINCH-HARMONICS-ON-E7-WHERE------|
B :------------------------------APPROPRIATE.-------------------------|
F#:-00-0-00-----00-0-03-0-5-------------------------------------------|
B :-00-0-00-----00-0-03-0-5-------------------------------------------|
Добавлено: 02.07.2012
Другие материалы по этой песне:

Страница создана 09.04.2012
http://primanota.ru/evita/the-elysium-fields-chords.htm
Привет, Гость.
Предлагаем пройти революционный курс по гитаре.
Подарок от PrimaNota.Ru, забирай!