PrimaNota.ru - самый крупный в мире бесплатный архив песенных текстов, аккордов, табулатур и нот


Evita - Cracks In The Wall - таба, видео

Регистрация Запомнить меня
Войти через:  Facebook Google Twitter Vk Yandex Mail.ru

Evita - Cracks In The Wall - таба, видео

Печатать
Просмотров: 129
Уроки эстрадного вокала в Санкт-Петербурге
Tabbed by Mark
Email: midnightwinter@live.com


I noticed in the guitar pro version, it didn't have the fade-in intro of the song. 
So I tried to figure it out myself.
All ear transcribed. So there might be a mistake or more... 
But this is how I think it's played. It's pretty close.
Correct me if I am wrong.


e|---------------9--7-7-7--|-------------------------|
B|--------9~---------------|---2--5--8-10--9~--------|
G|----7~-------------------|-------------------------|
D|-------------------------|-------------------------|
A|-------------------------|-------------------------|
E|-------------------------|-------------------------|



e|-------------4~----4--4-4|----------7~----12b-12-12|
B|--0---3~-----------------|------5~-----------------|
G|-------------------------|---6~--------------------|
D|-------------------------|-------------------------|
A|-------------------------|-------------------------|
E|-------------------------|-------------------------|

x6
Добавлено: 05.05.2012
Другие материалы по этой песне:

Страница создана 27.03.2012
http://primanota.ru/evita/cracks-in-the-wall-chords.htm
Привет, Гость.
Предлагаем пройти революционный курс по гитаре.
Подарок от PrimaNota.Ru, забирай!