PrimaNota.ru - самый крупный в мире бесплатный архив песенных текстов, аккордов, табулатур и нот


Evile - We Who Are About To Die - таба, видео

Регистрация Запомнить меня
Войти через:  Facebook Google Twitter Vk Yandex Mail.ru

Evile - We Who Are About To Die - таба, видео

Печатать
Просмотров: 138
-------------------------------------------------------------------------------
                             We Who Are About To Die - Evile
-------------------------------------------------------------------------------

Tabbed by: Mustaine
Email: kreator11@gmail.com


Tuning: E Flat


D#|---------------0--------------------------------------------------------------|
A#|-----0-------0----------------------------------------------------------------|
F#|-----------3------------------------------------------------------------------|
C#|---2---2-3--------------------------------------------------------------------|
G#|------------------------------------------------------------------------------|
D#|-0----------------------------------------------------------------------------|
                         repeat above bar 8x                                  

D#|------------------------------------------------------------------------------|
A#|------------------------------------------------------------------------------|
F#|------------------------------------------------------------------------------|
C#|-2--3--2---2--3--2------------------------------------------------------------|
G#|-2--1--2---2--1--2------------------------------------------------------------|
D#|-0-----0---0-----0---0-1-0-4-3------------------------------------------------|
                               repeat above bar 2x                            

D#|------------------------------------------------------------------------------|
A#|------------------------------------------------------------------------------|
F#|------------------------------------------------------------------------------|
C#|-2---------------------------2-------------4-3--------------------------------|
G#|-2-------------3-------------2-------------2-1-3------------------------------|
D#|-0--0-1-0-3-0--1--0-1-0-4-3--0--0-1-0-4-3------1------------------------------|
                                                                              

D#|------------------------------------------------------------------------------|
A#|------------------------------------------------------------------------------|
F#|------------------------------------------------------------------------------|
C#|-2--------------------------2--------------------------2----------------------|
G#|-2--------------------------2--------------------------2----------------------|
D#|-0--0-0-0--0--0-0-0-0-4-3---0--0-0-0--0--0-0-0-0-3-1---0--0-0-0--0--0-0-0-0-4-|
                                                                              

D#|------------------------------------------------------------------------------|
A#|------------------------------------------------------------------------------|
F#|------------------------------------------------------------------------------|
C#|----4-3-----------------------------------------------------------------------|
G#|----2-1-3---------------------------------------------------------------------|
D#|-3------1---------------------------------------------------------------------|
                         repeat above 2 bars 4x                               

D#|------------------------------------------------------------------------------|
A#|------------------------------------------------------------------------------|
F#|------------------------------------------------------------------------------|
C#|------------------------------------------------------------------------------|
G#|-----5---4--------------------------------------5---4-------------------------|
D#|-5/7---6---5-6--0-0--0-0-0-0--0-0--0-0-0-0--5/7---6---5-6--0-0--0-0-0-0-------|
                                                                              

D#|------------------------------------------------------------------------------|
A#|------------------------------------------------------------------------------|
F#|------------------------------------------------------------------------------|
C#|------------------------------------------------------------------------------|
G#|---------------------5---4--------------------------------------5---4---------|
D#|--0-0---0-0-0-0--5/7---6---5-6--0-0--0-0-0-0--0-0--0-0-0-0--5/7---6---5-6-----|
                                                                              

D#|------------------------------------------------------------------------------|
A#|------------------------------------------------------------------------------|
F#|------------------------------------------------------------------------------|
C#|------------------------------------------------------------------------------|
G#|------------------------------------------------------------------------------|
D#|-0-0--0-0-0-0--0-3--0-3-2-1---------------------------------------------------|
                                                                              

D#|------------------------------------------------------------------------------|
A#|------------------------------------------------------------------------------|
F#|------------------------------------------------------------------------------|
C#|-2--------------------------2--------------------------2----------------------|
G#|-2--------------------------2--------------------------2----------------------|
D#|-0--0-0-0--0--0-0-0-0-4-3---0--0-0-0--0--0-0-0-0-3-1---0--0-0-0--0--0-0-0-0-4-|
                                                                              

D#|------------------------------------------------------------------------------|
A#|------------------------------------------------------------------------------|
F#|------------------------------------------------------------------------------|
C#|----4-3-----------------------------------------------------------------------|
G#|----2-1-3---------------------------------------------------------------------|
D#|-3------1---------------------------------------------------------------------|
                         repeat above 2 bars 4x                               

D#|------------------------------------------------------------------------------|
A#|------------------------------------------------------------------------------|
F#|------------------------------------------------------------------------------|
C#|------------------------------------------------------------------------------|
G#|-----5---4--------------------------------------5---4-------------------------|
D#|-5/7---6---5-6--0-0--0-0-0-0--0-0--0-0-0-0--5/7---6---5-6--0-0--0-0-0-0-------|
                                                                              

D#|------------------------------------------------------------------------------|
A#|------------------------------------------------------------------------------|
F#|------------------------------------------------------------------------------|
C#|------------------------------------------------------------------------------|
G#|---------------------5---4--------------------------------------5---4---------|
D#|--0-0---0-0-0-0--5/7---6---5-6--0-0--0-0-0-0--0-0--0-0-0-0--5/7---6---5-6-----|
                                                                              

D#|------------------------------------------------------------------------------|
A#|------------------------------------------------------------------------------|
F#|------------------------------------------------------------------------------|
C#|------------------------------------------------------------------------------|
G#|------------------------------------------------------------------------------|
D#|-0-0--0-0-0-0--0-3--0-3-2-1---------------------------------------------------|
                                                                              

D#|------------------------------------------------------------------------------|
A#|------------------------------------------------------------------------------|
F#|------------------------------------------------------------------------------|
C#|-2---------------------------2-------------2----------------------------------|
G#|-2-------------3-------------2-------------2----------------------------------|
D#|-0--0-1-0-3-0--1--0-1-0-4-3--0--0-1-0-3-0--0--0-1-0-4-3-----------------------|
                                                                              

D#|------------------------------------------------------------------------------|
A#|------------------------------------------------------------------------------|
F#|------------------------------------------------------------------------------|
C#|-9-----------------------------10---8---8---8---------------------------------|
G#|-7------------------------------8---6---6---6---------------------------------|
D#|----0-0-0-0-0-0-0-0-0-0-0-0--0----0---0---0---0-------------------------------|
                          repeat above bar 10x                                

D#|------------------------------------------------------------------------------|
A#|------------------------------------------------------------------------------|
F#|------------------------------------------------------------------------------|
C#|--------------------------------------10-9------------------------------------|
G#|-9-------------------------------12-9--8-7---9--------------------------------|
D#|-7--7-7-7-7-7-7-7-7-7-7-7-7--7---10-7--------7--7-7-7-7-7-7-7-7-7-7-7-7--7----|
                                                                              

D#|------------------------------------------------------------------------------|
A#|------------------------------------------------------------------------------|
F#|------------------------------------------------------------------------------|
C#|-7----------------------------------------------------------------------------|
G#|-5-7-9-10---------------------------------------------------------------------|
D#|---5-7--8---------------------------------------------------------------------|
                             repeat above 2 bars 3x                           

D#|------------------------------------------------------------------------------|
A#|------------------------------------------------------------------------------|
F#|------------------------------------------------------------------------------|
C#|--------------------------------------10-9------------------------------------|
G#|-9-------------------------------12-9--8-7---9--------------------------------|
D#|-7--7-7-7-7-7-7-7-7-7-7-7-7--7---10-7--------7--7-7-7-7-7-7-7-7-7-7-7-7--7----|
                                                                              

D#|------------------------------------------------------------------------------|
A#|------------------------------------------------------------------------------|
F#|------------------------------------------------------------------------------|
C#|-7-----8----------------------------------------------------------------------|
G#|-5-7-9-6----------------------------------------------------------------------|
D#|---5-7------------------------------------------------------------------------|
                                                                              

D#|------------------------------------------------------------------------------|
A#|------------------------------------------------------------------------------|
F#|------------------------------------------------------------------------------|
C#|-9-----------------------------10---8---8---8----9----------------------------|
G#|-7------------------------------8---6---6---6----7----------------------------|
D#|----0-0-0-0-0-0-0-0-0-0-0-0--0----0---0---0---0-----0-0-0-0-0-0-0-0-0-0-0-0---|
                                                                              

D#|------------------------------------------------------------------------------|
A#|------------------------------------------------------------------------------|
F#|------------------------------------------------------------------------------|
C#|---10---8---8---8----9\8---7----------------------2--------3-3----------------|
G#|----8---6---6---6----7\6---5---10\9---8----5/7\5--2--------1-1----------------|
D#|-0----0---0---0---0------0---0--8\7-0-6-0--3/5\3--0---------------------------|
                                                                              

D#|------------------------------------------------------------------------------|
A#|------------------------------------------------------------------------------|
F#|------------------------------------------------------------------------------|
C#|-2---------------9---------------7-------------------0-1-2---------------5----|
G#|-2---------------7---------------5-------------------0-1-2---------------3----|
D#|-0--0-0-0-0-0-0-----0-0-0-0-0-0-----0-0-0-0-0-0--3-2--------0-0-0-0-0-0-------|
                                                                              

D#|------------------------------------------------------------------------------|
A#|------------------------------------------------------------------------------|
F#|------------------------------------------------------------------------------|
C#|--------------7---------------10---10-----------------------------------------|
G#|--------------5----------------8----8-----------------------------------------|
D#|-0-0-0-0-0-0-----0-0-0-0-0-0-----0--------------------------------------------|
                                                                              

D#|------------------------------------------------------------------------------|
A#|------------------------------------------------------------------------------|
F#|------------------------------------------------------------------------------|
C#|-9---------------9---------------7-------------------0-1-2---------------5----|
G#|-7---------------7---------------5-------------------0-1-2---------------3----|
D#|----0-0-0-0-0-0-----0-0-0-0-0-0-----0-0-0-0-0-0--3-2--------0-0-0-0-0-0-------|
                                                                              

D#|------------------------------------------------------------------------------|
A#|------------------------------------------------------------------------------|
F#|------------------------------------------------------------------------------|
C#|--------------7---------------10---10-----------------------------------------|
G#|--------------5----------------8----8-----------------------------------------|
D#|-0-0-0-0-0-0-----0-0-0-0-0-0-----0--------------------------------------------|
                               repeat above 2 bars 2x                         

D#|------------------------------------------------------------------------------|
A#|------------------------------------------------------------------------------|
F#|------------------------------------------------------------------------------|
C#|-9---------------9---------------7-------------------0-1-2---------------5----|
G#|-7---------------7---------------5-------------------0-1-2---------------3----|
D#|----0-0-0-0-0-0-----0-0-0-0-0-0-----0-0-0-0-0-0--3-2--------0-0-0-0-0-0-------|
                                                                              

D#|------------------------------------------------------------------------------|
A#|------------------------------------------------------------------------------|
F#|------------------------------4h5p4-------------------------------------------|
C#|--------------7---------------------5-4---------------------------------------|
G#|--------------5---------------------------------------------------------------|
D#|-0-0-0-0-0-0-----0-0-0-0-0-0--------------------------------------------------|
                                                                              

D#|------------------------------------------------------------------------------|
A#|------------------------------------------------------------------------------|
F#|-----10---11------------------------------------------------------------------|
C#|-9----8----9---10-------------------------------------------------------------|
G#|-7--------------8-------------------------------------------------------------|
D#|------------------------------------------------------------------------------|
   guitar 2                                                                    

D#|------------------------------------------------------------------------------|
A#|------------------------------------------------------------------------------|
F#|------------------------------------------------------------------------------|
C#|-----------------------------------7------------------------------------------|
G#|---------------7---5-8-7-------------8-10-7----------------7---5-8-7----------|
D#|-0-0-0--0-0-0----6--------0--0-0-0-----------0-0-0--0-0-0----6-------0--0-0-0-|
                                                                              

D#|------------------------------------------------------------------------------|
A#|------------------------------------------------------------------------------|
F#|------------------------------------------------------------------------------|
C#|--7---7b8r7-------------------------------------------------------------------|
G#|----8-------------------------------------------------------------------------|
D#|------------------------------------------------------------------------------|
                   repeat above 2 bars 4x                                     

D#|------------------------------------------------------------------------------|
A#|------------------------------------------------------------------------------|
F#|------------------------------------------------------------------------------|
C#|---------------6-----7-6-----------10-7-9-6----------------6-----7-6----------|
G#|-----------------5-8-----------------------------------------5-8--------------|
D#|-0-0-0--0-0-0-------------0--0-0-0-----------0-0-0--0-0-0------------0--0-0-0-|
                                                                              

D#|------------------------------------------------------------------------------|
A#|------------------------------------------------------------------------------|
F#|-------9----------------------------------------------------------------------|
C#|--10--------------------------------------------------------------------------|
G#|-----8------------------------------------------------------------------------|
D#|------------------------------------------------------------------------------|
                     above 2 bars are guitar 2                                

D#|------------------------------------------------------------------------------|
A#|------------------------------------------------------------------------------|
F#|------------------------------------------------------------------------------|
C#|--------------0-1-2----------------9\8---7---5\4---3--------------------------|
G#|--------------0-1-2--------3---3---7\6---5---3\2---1---5/7-5------------------|
D#|-0-0-0-0--3-2-------0-0-0--1-0-1-------0---0-----0---0-3/5-3------------------|
                                                                              

D#|------------------------------------------------------------------------------|
A#|------------------------------------------------------------------------------|
F#|------------------------------------------------------------------------------|
C#|-----------------0-1-2--------------------------------------------------------|
G#|-----------------0-1-2-----------3---3----------------------------------------|
D#|-0--0-0-0--0-3-2-------0-0-0--0--1-0-1----------------------------------------|
                            repeat above bar 4x                               

D#|------------------------------------------------------------------------------|
A#|------------------------------------------------------------------------------|
F#|---------------------------------5---5---------------------------------4---4--|
C#|-----------------0-1-2-----------3---3------------------0-1-2----------2---2--|
G#|-----------------0-1-2----------------------------------0-1-2-----------------|
D#|-0--0-0-0--0-3-2-------0-0-0--0----0----0--0-0-0--0-3-2-------0-0-0--0---0----|
                                                                              

D#|------------------------------------------------------------------------------|
A#|------------------------------------------------------------------------------|
F#|---------------------------------3---3----------------------------------------|
C#|-----------------0-1-2-----------1---1------------------0-1-2----------7---7--|
G#|-----------------0-1-2----------------------------------0-1-2----------5---5--|
D#|-0--0-0-0--0-3-2-------0-0-0--0----0----0--0-0-0--0-3-2-------0-0-0--0---0----|
                                                                              

D#|------------------------------------------------------------------------------|
A#|------------------------------------------------------------------------------|
F#|------------------------------------------------------------------------------|
C#|------------------------------------------------------------------------------|
G#|-----------------3-4-5-----------6---6----------------------------------------|
D#|-3--3-3-3--3-6-5-------3-3-3--3--4-4-4----------------------------------------|
     solo rhythm         repeat above bar 4x                                  

D#|------------------------------------------------------------------------------|
A#|------------------------------------------------------------------------------|
F#|------------------------------------------------------------------------------|
C#|-----------------0-1-2--------------------------------------------------------|
G#|-----------------0-1-2-----------3---3-------------------2-3-4-----------5----|
D#|-0--0-0-0--0-3-2-------0-0-0--0--1-0-1---2--2-2-2--2-5-4-------2-2-2--2--3-3--|
                                                                              

D#|------------------------------------------------------------------------------|
A#|------------------------------------------------------------------------------|
F#|------------------------------------------------------------------------------|
C#|------------------------------------------------------------------------------|
G#|-5----------------------------------------------------------------------------|
D#|-3----------------------------------------------------------------------------|
               repeat above 2 bars 2x                                         

D#|------------------------------------------------------------------------------|
A#|------------------------------------------------------------------------------|
F#|------------------------------------------------------------------------------|
C#|------------------------------------------------------------------------------|
G#|-----------------5-6--7---------------6-7--8---------------7-8--9-10-11--9-8--|
D#|-4--4-4-4--4-7-6------5--5-5-5--5-8-7------6--6-6-6--6-9-8------7--8--9--7-6--|
                                                                              

D#|------------------------------------------------------------------------------|
A#|------------------------------------------------------------------------------|
F#|------------------------------------------------------------------------------|
C#|------------------------------------------------------------------------------|
G#|-3----------------------------------------------------------------------------|
D#|-1----------------------------------------------------------------------------|
                                                                              

D#|------------------------------------------------------------------------------|
A#|------------------------------------------------------------------------------|
F#|------------------------------------------------------------------------------|
C#|-2--------------------------2--------------------------2----------------------|
G#|-2--------------------------2--------------------------2----------------------|
D#|-0--0-0-0--0--0-0-0-0-4-3---0--0-0-0--0--0-0-0-0-3-1---0--0-0-0--0--0-0-0-0-4-|
                                                                              

D#|------------------------------------------------------------------------------|
A#|------------------------------------------------------------------------------|
F#|------------------------------------------------------------------------------|
C#|----4-3-----------------------------------------------------------------------|
G#|----2-1-3---------------------------------------------------------------------|
D#|-3------1---------------------------------------------------------------------|
                         repeat above 2 bars 4x                               

D#|------------------------------------------------------------------------------|
A#|------------------------------------------------------------------------------|
F#|------------------------------------------------------------------------------|
C#|-2--3--2---2--3--2------------------------------------------------------------|
G#|-2--1--2---2--1--2------------------------------------------------------------|
D#|-0-----0---0-----0---0-1-0-4-3------------------------------------------------|
                               fades out with this                            
                                                                              
D#|---------------0--------------------------------------------------------------|
A#|-----0-------0----------------------------------------------------------------|
F#|-----------3------------------------------------------------------------------|
C#|---2---2-3--------------------------------------------------------------------|
G#|------------------------------------------------------------------------------|
D#|-0----------------------------------------------------------------------------|
                                                                              

Добавлено: 20.06.2012
Вам также может быть интересно:
Другие материалы по этой песне:

Страница создана 20.06.2012
http://primanota.ru/evile/we-who-are-about-to-die-chords.htm
Привет, Гость.
Предлагаем пройти революционный курс по гитаре.
Подарок от PrimaNota.Ru, забирай!