PrimaNota.ru - самый крупный в мире бесплатный архив песенных текстов, аккордов, табулатур и нот


Evile - Schizophrenia - таба, видео

Регистрация Запомнить меня
Войти через:  Facebook Google Twitter Vk Yandex Mail.ru

Evile - Schizophrenia - таба, видео

Печатать
Просмотров: 122
Уроки эстрадного вокала в Санкт-Петербурге
-------------------------------------------------------------------------------
                             Schizophrenia - Evile
-------------------------------------------------------------------------------

Tabbed by: Mustaine
Email: kreator11@gmail.com


Tuning: E Flat


D#|------------------------------------------------------------------------------|
A#|------------------------------------------------------------------------------|
F#|------------------------------------------------------------------------------|
C#|----------------------3-----------------------5-----------------------6-------|
G#|----------------------1-----------------------3-----------------------4-------|
D#|-3-1-0--3-1-0--3-1-0-----3-1-0--3-1-0--3-1-0-----3-1-0--3-1-0--3-1-0-----3-1--|
                                                                              

D#|------------------------------------------------------------------------------|
A#|------------------------------------------------------------------------------|
F#|------------------------------------------------------------------------------|
C#|----7-8-7---------------------------------------------------------------------|
G#|----5-6-5---------------------------------------------------------------------|
D#|-0----------------------------------------------------------------------------|
                             repeat above 2 bars 2x                           

D#|------------------------------------------------------------------------------|
A#|------------------------------------------------------------------------------|
F#|------------------------------------------------------------------------------|
C#|------------------------------------------------------------------------------|
G#|------------------------------------------------------------------------------|
D#|-1-1-1-1-1-1-1-1-1-1-1-1-1-1-1-1-1-1-1-1-1-1-1-1-1-1-1-1-1-1-1-1-1-1-1-1-1-1--|
                                                                              

D#|------------------------------------------------------------------------------|
A#|------------------------------------------------------------------------------|
F#|------------------------------------------------------------------------------|
C#|----------------------------3---2---------------------------------------------|
G#|----------------------------1-4-2---------------------------------------------|
D#|-1-1-1-1-1-1-1-1-1-1--1-1-1---2-0---------------------------------------------|
                               repeat above 2 bars 4x                         

D#|------------------------------------------------------------------------------|
A#|------------------------------------------------------------------------------|
F#|-----------------------------------------------------------2------------------|
C#|-3----------------------------9----------------------------2------------------|
G#|-1-1-1-1-1-1-1-1-1-1-1-1-1-1--7-7-7-7-7-7-7-7-7-7-7-7-7-7--0-0-0-0-0-0-0-0-0--|
D#|------------------------------------------------------------------------------|
                                                                              

D#|------------------------------------------------------------------------------|
A#|------------------------------------------------------------------------------|
F#|----------------------6\5-----------------------------------------------------|
C#|--------------8\7-----4\3-----------------------------------------------------|
G#|-0-0-0-0-0-0--6\5-0-0-----0-0-------------------------------------------------|
D#|------------------------------------------------------------------------------|
                                 repeat above 2 bars 2x                       

D#|------------------------------------------------------------------------------|
A#|------------------------------------------------------------------------------|
F#|------------------------------------------------------------------------------|
C#|----------------------3-----------------------5-----------------------6-------|
G#|----------------------1-----------------------3-----------------------4-------|
D#|-3-1-0--3-1-0--3-1-0-----3-1-0--3-1-0--3-1-0-----3-1-0--3-1-0--3-1-0-----3-1--|
                                                                              

D#|------------------------------------------------------------------------------|
A#|------------------------------------------------------------------------------|
F#|------------------------------------------------------------------------------|
C#|----7-8-7---------------------------------------------------------------------|
G#|----5-6-5---------------------------------------------------------------------|
D#|-0----------------------------------------------------------------------------|
                             repeat above 2 bars 2x                           

D#|------------------------------------------------------------------------------|
A#|------------------------------------------------------------------------------|
F#|------------------------------------------------------------------------------|
C#|------------------------------------------------------------------------------|
G#|------------------------------------------------------------------------------|
D#|-1-1-1-1-1-1-1-1-1-1-1-1-1-1-1-1-1-1-1-1-1-1-1-1-1-1-1-1-1-1-1-1-1-1-1-1-1-1--|
                                                                              

D#|------------------------------------------------------------------------------|
A#|------------------------------------------------------------------------------|
F#|------------------------------------------------------------------------------|
C#|----------------------------3---2---------------------------------------------|
G#|----------------------------1-4-2---------------------------------------------|
D#|-1-1-1-1-1-1-1-1-1-1--1-1-1---2-0---------------------------------------------|
                               repeat above 2 bars 4x                         

D#|------------------------------------------------------------------------------|
A#|------------------------------------------------------------------------------|
F#|-----------------------------------------------------------2------------------|
C#|-3----------------------------9----------------------------2------------------|
G#|-1-1-1-1-1-1-1-1-1-1-1-1-1-1--7-7-7-7-7-7-7-7-7-7-7-7-7-7--0-0-0-0-0-0-0-0-0--|
D#|------------------------------------------------------------------------------|
                                                                              

D#|------------------------------------------------------------------------------|
A#|------------------------------------------------------------------------------|
F#|----------------------6\5-----------------------------------------------------|
C#|--------------8\7-----4\3-----------------------------------------------------|
G#|-0-0-0-0-0-0--6\5-0-0-----0-0-------------------------------------------------|
D#|------------------------------------------------------------------------------|
                                 repeat above 2 bars 2x                       

D#|------------------------------------------------------------------------------|
A#|------------------------------------------------------------------------------|
F#|------------------------------------------------------------------------------|
C#|----------------------3-----------------------5-----------------------6-------|
G#|----------------------1-----------------------3-----------------------4-------|
D#|-3-1-0--3-1-0--3-1-0-----3-1-0--3-1-0--3-1-0-----3-1-0--3-1-0--3-1-0-----3-1--|
                                                                              

D#|------------------------------------------------------------------------------|
A#|------------------------------------------------------------------------------|
F#|------------------------------------------------------------------------------|
C#|----7-8-7---------------------------------------------------------------------|
G#|----5-6-5---------------------------------------------------------------------|
D#|-0----------------------------------------------------------------------------|
                             repeat above 2 bars 4x                          

D#|------------------------------------------------------------------------------|
A#|------------------------------------------------------------------------------|
F#|---------------------------------------------------------7--------------------|
C#|-2/3\2---1-----2/3\2---1-----2/3\2---1-----2/3\2---1-----5--------------------|
G#|-2/3\2---1-----2/3\2---1-----2/3\2---1-----2/3\2---1-----5--------------------|
D#|-------0-------------0-------------0-------------0----0-----------------------|
                                                                              

D#|------------------------------------------------------------------------------|
A#|------------------------------------------------------------------------------|
F#|---------------------------------------------------------------------3--------|
C#|-2/3\2---1-----------------------2/3\2-----------------------2h3p2---1--------|
G#|-2/3\2---1-----------------------2/3\2--------------3---3---------------------|
D#|-------0----0-0-0-0-0-0-0-0-0-0--------0-0-0-0-0-0--1p0-1p0--------0---0-0-0--|
                                                                              

D#|------------------------------------------------------------------------------|
A#|------------------------------------------------------------------------------|
F#|------------------------3-----------------------------------------------------|
C#|----------------2h3p2---1-----------------------------------------------------|
G#|----------------------------------------3---3---------------------------------|
D#|-0-0-0-0-0-0-0--------0----0-0-0-0-0-0--1p0-1---------------------------------|
                           repeat above 2 bars 2x                             

D#|------------------------------------------------------------------------------|
A#|------------------------------------------------------------------------------|
F#|------------------------------------------------------------------------------|
C#|------------------------------------------------------------------------------|
G#|-------------6--------------------------5--------------------------6----------|
D#|-3-3-3-3-4-3---3-3-3-3-3-3--3-3-3-3-4-3---3-3-3-3-3-3--3-3-3-3-4-3---3-3-3-3--|
                      solo rhythm                                             

D#|------------------------------------------------------------------------------|
A#|------------------------------------------------------------------------------|
F#|------------------------------------------------------------------------------|
C#|------------------7-8---------------------------------------------------------|
G#|------------------5-6---------------------------------------------------------|
D#|-3-3--3-3-3-3-4-0-------------------------------------------------------------|
                                                                              

D#|------------------------------------------------------------------------------|
A#|------------------------------------------------------------------------------|
F#|------------------------------------------------------------------------------|
C#|------------------------------------------------------------------------------|
G#|-------------7--------------------------6--------------------------7----------|
D#|-4-4-4-4-5-4---4-4-4-4-4-4--4-4-4-4-5-4---4-4-4-4-4-4--4-4-4-4-5-4---4-4-4-4--|
                                                                              

D#|------------------------------------------------------------------------------|
A#|------------------------------------------------------------------------------|
F#|------------------------------------------------------------------------------|
C#|------------------8-9---------------------------------------------------------|
G#|------------------6-7---------------------------------------------------------|
D#|-4-4--4-4-4-4-5-0-------------------------------------------------------------|
                            repeat above 4 bars 2x                            

D#|------------------------------------------------------------------------------|
A#|------------------------------------------------------------------------------|
F#|------------------------------------------------------------------------------|
C#|-------------8-7--7/8-7-5-3---------------------------------------------------|
G#|-5---5-6-5-3-6-5--5/6-5-3-1---------------------------------------------------|
D#|-3---3-4-3-1------------------------------------------------------------------|
                                                                              

D#|------------------------------------------------------------------------------|
A#|------------------------------------------------------------------------------|
F#|------------------------------------------------------------------------------|
C#|-------------5--------------------------4--------------------------3----------|
G#|-2-2-2-2-3-2---2-2-2-2-2-2--2-2-2-2-3-2---2-2-2-2-2-2--2-2-2-2-3-2---2-2-2-2--|
D#|------------------------------------------------------------------------------|
                                                                              

D#|------------------------------------------------------------------------------|
A#|------------------------------------------------------------------------------|
F#|------------------5-4---------------------------------------------------------|
C#|----------------------5b6r5---------------------------------------------------|
G#|-2-2--2-2-2-2-3-2-------------------------------------------------------------|
D#|------------------------------------------------------------------------------|
                            repeat above 2 bars 2x                            

D#|------------------------------------------------------------------------------|
A#|------------------------------------------------------------------------------|
F#|------------------------------------------------------------------------------|
C#|------------------------------------------------------------------------------|
G#|-------------6--------------------------5--------------------------6----------|
D#|-3-3-3-3-4-3---3-3-3-3-3-3--3-3-3-3-4-3---3-3-3-3-3-3--3-3-3-3-4-3---3-3-3-3--|
                                                                              

D#|------------------------------------------------------------------------------|
A#|------------------------------------------------------------------------------|
F#|------------------------------------------------------------------------------|
C#|------------------7-8---------------------------------------------------------|
G#|------------------5-6---------------------------------------------------------|
D#|-3-3--3-3-3-3-4-0-------------------------------------------------------------|
                                                                              

D#|------------------------------------------------------------------------------|
A#|------------------------------------------------------------------------------|
F#|------------------------------------------------------------------------------|
C#|-------------5--------------------------4--------------------------3----------|
G#|-2-2-2-2-3-2---2-2-2-2-2-2--2-2-2-2-3-2---2-2-2-2-2-2--2-2-2-2-3-2---2-2-2-2--|
D#|------------------------------------------------------------------------------|
                                                                              

D#|------------------------------------------------------------------------------|
A#|------------------------------------------------------------------------------|
F#|------------------5-4---------------------------------------------------------|
C#|----------------------5b6r5---------------------------------------------------|
G#|-2-2--2-2-2-2-3-2-------------------------------------------------------------|
D#|------------------------------------------------------------------------------|
                                                                              

D#|------------------------------------------------------------------------------|
A#|------------------------------------------------------------------------------|
F#|------------------------------------------------------------------------------|
C#|------------------------------------------------------------------------------|
G#|-------------6--------------------------5--------------------------6----------|
D#|-3-3-3-3-4-3---3-3-3-3-3-3--3-3-3-3-4-3---3-3-3-3-3-3--3-3-3-3-4-3---3-3-3-3--|
                                                                              

D#|------------------------------------------------------------------------------|
A#|------------------------------------------------------------------------------|
F#|------------------------------------------------------------------------------|
C#|------------------7-8---------------------------------------------------------|
G#|------------------5-6---------------------------------------------------------|
D#|-3-3--3-3-3-3-4-0-------------------------------------------------------------|
                                                                              

D#|------------------------------------------------------------------------------|
A#|------------------------------------------------------------------------------|
F#|------------------------------------------------------------------------------|
C#|-------------5--------------------------4--------------------------3----------|
G#|-2-2-2-2-3-2---2-2-2-2-2-2--2-2-2-2-3-2---2-2-2-2-2-2--2-2-2-2-3-2---2-2-2-2--|
D#|------------------------------------------------------------------------------|
                                                                              

D#|------------------------------------------------------------------------------|
A#|------------------------------------------------------------------------------|
F#|------------------5-4---------------------------------------------------------|
C#|----------------------5b6r5---------------------------------------------------|
G#|-2-2--2-2-2-2-3-2-------------------------------------------------------------|
D#|------------------------------------------------------------------------------|
                                                                              

D#|------------------------------------------------------------------------------|
A#|------------------------------------------------------------------------------|
F#|------------------------------------------------------------------------------|
C#|------------------------------------------------------------------------------|
G#|-------------6--------------------------5--------------------------6----------|
D#|-3-3-3-3-4-3---3-3-3-3-3-3--3-3-3-3-4-3---3-3-3-3-3-3--3-3-3-3-4-3---3-3-3-3--|
                                                                              

D#|------------------------------------------------------------------------------|
A#|------------------------------------------------------------------------------|
F#|------------------------------------------------------------------------------|
C#|------------------7-8---------------------------------------------------------|
G#|------------------5-6---------------------------------------------------------|
D#|-3-3--3-3-3-3-4-0-------------------------------------------------------------|
                                                                              

D#|------------------------------------------------------------------------------|
A#|------------------------------------------------------------------------------|
F#|------------------------------------------------------------------------------|
C#|-------------5--------------------------4--------------------------3----------|
G#|-2-2-2-2-3-2---2-2-2-2-2-2--2-2-2-2-3-2---2-2-2-2-2-2--2-2-2-2-3-2---2-2-2-2--|
D#|------------------------------------------------------------------------------|
                                                                              

D#|------------------------------------------------------------------------------|
A#|------------------------------------------------------------------------------|
F#|------------------5-4---------------------------------------------------------|
C#|----------------------5b6r5---------------------------------------------------|
G#|-2-2--2-2-2-2-3-2-------------------------------------------------------------|
D#|------------------------------------------------------------------------------|
                                                                              

D#|------------------------------------------------------------------------------|
A#|------------------------------------------------------------------------------|
F#|------------------------------------------------------------------------------|
C#|-------------8----------------------------------------------------------------|
G#|-5---5-6-5-3-6----------------------------------------------------------------|
D#|-3---3-4-3-1------------------------------------------------------------------|
                                                                              

D#|------------------------------------------------------------------------------|
A#|------------------------------------------------------------------------------|
F#|------------------------------------------------------------------------------|
C#|------------------------------------------------------------------------------|
G#|------------------------------------------------------------------------------|
D#|-1-1-1-1-1-1-1-1-1-1-1-1-1-1-1-1-1-1-1-1-1-1-1-1-1-1-1-1-1-1-1-1-1-1-1-1-1-1--|
                                                                              

D#|------------------------------------------------------------------------------|
A#|------------------------------------------------------------------------------|
F#|------------------------------------------------------------------------------|
C#|----------------------------3---2---------------------------------------------|
G#|----------------------------1-4-2---------------------------------------------|
D#|-1-1-1-1-1-1-1-1-1-1--1-1-1---2-0---------------------------------------------|
                               repeat above 2 bars 4x                         

D#|------------------------------------------------------------------------------|
A#|------------------------------------------------------------------------------|
F#|-----------------------------------------------------------2------------------|
C#|-3----------------------------9----------------------------2------------------|
G#|-1-1-1-1-1-1-1-1-1-1-1-1-1-1--7-7-7-7-7-7-7-7-7-7-7-7-7-7--0-0-0-0-0-0-0-0-0--|
D#|------------------------------------------------------------------------------|
                                                                              

D#|------------------------------------------------------------------------------|
A#|------------------------------------------------------------------------------|
F#|----------------------6\5-----------------------------------------------------|
C#|--------------8\7-----4\3-----------------------------------------------------|
G#|-0-0-0-0-0-0--6\5-0-0-----0-0-------------------------------------------------|
D#|------------------------------------------------------------------------------|
                                 repeat above 2 bars 2x                       

D#|------------------------------------------------------------------------------|
A#|------------------------------------------------------------------------------|
F#|------------------------------------------------------------------------------|
C#|----------------------3-----------------------5-----------------------6-------|
G#|----------------------1-----------------------3-----------------------4-------|
D#|-3-1-0--3-1-0--3-1-0-----3-1-0--3-1-0--3-1-0-----3-1-0--3-1-0--3-1-0-----3-1--|
                                                                              

D#|------------------------------------------------------------------------------|
A#|------------------------------------------------------------------------------|
F#|------------------------------------------------------------------------------|
C#|----7-8-7---------------------------------------------------------------------|
G#|----5-6-5---------------------------------------------------------------------|
D#|-0----------------------------------------------------------------------------|
                             repeat above 2 bars 4x                           

D#|------------------------------------------------------------------------------|
A#|------------------------------------------------------------------------------|
F#|------------------------------------------------------------------------------|
C#|-------7-8-7---------7-8-7----------------------------------------------------|
G#|-------5-6-5---------5-6-5----------------------------------------------------|
D#|-3-1-0---------3-1-0----------------------------------------------------------|
                                                                              

D#|------------------------------------------------------------------------------|
A#|-----------------------------------------------------6-5----------------------|
F#|-----------------------------------------------5\4-------7-4-3----------------|
C#|-5\4---------------------------5\4-----7\6-----3\2-------------6--------------|
G#|-3\2-------------8\7-----------3\2-----5\4------------------------------------|
D#|-----0-0-0-0-0-0-6\5-0-0-0-0-0-----0-0-----0-0-----0--------------------------|
                               repeat above bar 6x                            

D#|------------------------------------------------------------------------------|
A#|--5-4---------3-2-------------------------------------------------------------|
F#|------6-3-2-------4-1---------------------------------------------------------|
C#|------------5---------3-3---2-------------------------------------------------|
G#|----------------------------2-------------------------------------------------|
D#|----------------------------0-------------------------------------------------|
                                                                              

Добавлено: 15.04.2012
Другие материалы по этой песне:
  • Аккорды и текст

Страница создана 15.04.2012
http://primanota.ru/evile/schizophrenia-chords.htm
Привет, Гость.
Предлагаем пройти революционный курс по гитаре.
Подарок от PrimaNota.Ru, забирай!