PrimaNota.ru - самый крупный в мире бесплатный архив песенных текстов, аккордов, табулатур и нот


Evile - Killer From The Deep - текст песни, таба, бас-таба, видео

Регистрация Запомнить меня
Войти через:  Facebook Google Twitter Vk Yandex Mail.ru

Evile - Killer From The Deep - текст песни, таба, бас-таба, видео

Печатать
Просмотров: 146
-------------------------------------------------------------------------------
                             Killer From The Deep - Evile
-------------------------------------------------------------------------------

Tabbed by: Mustaine
Email: kreator11@gmail.com


Tuning: E Flat


D#|------------------------------------------------------------------------------|
A#|------------------------------------------------------------------------------|
F#|------------------------------------------------------------------------------|
C#|-2----------------------------------------------------------------------------|
G#|-2-----------------------4-----------------------------------------------4----|
D#|-0--0-0-0-0-0-0-0-0--3-6----0-0-0-0-0-0-0-0--3-6-5--0-0-0-0-0-0-0-0--3-6---6--|
                                                                              

D#|------------------------------------------------------------------------------|
A#|------------------------------------------------------------------------------|
F#|------------------------------------------------------------------------------|
C#|------------------------------------------------------------------------------|
G#|-4-5--------------------------------------------------------------------------|
D#|-----6-5----------------------------------------------------------------------|
                         repeat above 2 bars 6x                               

D#|------------------------------------------------------------------------------|
A#|------------------------------------------------------------------------------|
F#|------------------------------------------------------------------------------|
C#|-2----------------------------------------------------------------------------|
G#|-2-------------------------------------------------------1--------------------|
D#|-0--0-0-0-0-0-0-0-0-0-0-0-0-0-0-0-0-0-0-0-0-0-0-0-0--2-3----0-0-0-0-0-0-0-0---|
                                                                              

D#|------------------------------------------------------------------------------|
A#|------------------------------------------------------------------------------|
F#|------------------------------------------------------------------------------|
C#|------------------------------------------------------------------------------|
G#|----------------------------------1-------------------------------------------|
D#|-0-0-0-0-0-0-0-0-0-0-0-0-0-0-0-0----3-2--0-0-0-0-0-0-0-0-0-0-0-0-0-0-0-0-0-0--|
                                                                              

D#|------------------------------------------------------------------------------|
A#|------------------------------------------------------------------------------|
F#|------------------------------------------------------------------------------|
C#|------------------------------------------------------------------------------|
G#|------------------1------------------------------4---4-5----------------------|
D#|-0-0-0-0-0-0--2-3----0-0-0-0-0-0-0-0-0-0-0-0-0-0---6-----6-5------------------|
                          repeat above 3 bars 2x                              

D#|------------------------------------------------------------------------------|
A#|------------------------------------------------------------------------------|
F#|------------------------------------------------------------------------------|
C#|-2----------------------------------------------------------------------------|
G#|-2-----------------------4-----------------------------------------------4----|
D#|-0--0-0-0-0-0-0-0-0--3-6----0-0-0-0-0-0-0-0--3-6-5--0-0-0-0-0-0-0-0--3-6---6--|
                                                                              

D#|------------------------------------------------------------------------------|
A#|------------------------------------------------------------------------------|
F#|------------------------------------------------------------------------------|
C#|------------------------------------------------------------------------------|
G#|-4-5--------------------------------------------------------------------------|
D#|-----6-5----------------------------------------------------------------------|
                         repeat above 2 bars 2x                               

D#|------------------------------------------------------------------------------|
A#|------------------------------------------------------------------------------|
F#|------------------------------------------------------------------------------|
C#|-2----------------------------------------------------------------------------|
G#|-2-------------------------------------------------------1--------------------|
D#|-0--0-0-0-0-0-0-0-0-0-0-0-0-0-0-0-0-0-0-0-0-0-0-0-0--2-3----0-0-0-0-0-0-0-0---|
                                                                              

D#|------------------------------------------------------------------------------|
A#|------------------------------------------------------------------------------|
F#|------------------------------------------------------------------------------|
C#|------------------------------------------------------------------------------|
G#|----------------------------------1-------------------------------------------|
D#|-0-0-0-0-0-0-0-0-0-0-0-0-0-0-0-0----3-2--0-0-0-0-0-0-0-0-0-0-0-0-0-0-0-0-0-0--|
                                                                              

D#|------------------------------------------------------------------------------|
A#|------------------------------------------------------------------------------|
F#|------------------------------------------------------------------------------|
C#|------------------------------------------------------------------------------|
G#|------------------1------------------------------4---4-5----------------------|
D#|-0-0-0-0-0-0--2-3----0-0-0-0-0-0-0-0-0-0-0-0-0-0---6-----6-5------------------|
                          repeat above 3 bars 2x                              

D#|------------------------------------------------------------------------------|
A#|------------------------------------------------------------------------------|
F#|------------------------------------------------------------------------------|
C#|-2----------------------------------------------------------------------------|
G#|-2-----------------------4-----------------------------------------------4----|
D#|-0--0-0-0-0-0-0-0-0--3-6----0-0-0-0-0-0-0-0--3-6-5--0-0-0-0-0-0-0-0--3-6---6--|
                                                                              

D#|------------------------------------------------------------------------------|
A#|------------------------------------------------------------------------------|
F#|------------------------------------------------------------------------------|
C#|------------------------------------------------------------------------------|
G#|-4-5--------------------------------------------------------------------------|
D#|-----6-5----------------------------------------------------------------------|
                         repeat above 2 bars 2x                               

D#|------------------------------------------------------------------------------|
A#|------------------------------------------------------------------------------|
F#|------------------------------------------------------------------------------|
C#|-----------------------------------------2----2-------------------------------|
G#|-4---4-5------4---4-5------4---4-5-------2----2-------------------------------|
D#|---6-----6-5----6-----6-5----6-----6-5---0----0-------------------------------|
                                                                              

D#|------------------------------------------------------------------------------|
A#|------------------------------------------------------------------------------|
F#|---------------1---1-2--------------------------------------------------------|
C#|-2---2-3---------3-----3-2----------------------------------------------------|
G#|---4-----4-3------------------------------------------------------------------|
D#|------------------------------------------------------------------------------|
        guitar 2                                                              

D#|------------------------------------------------------------------------------|
A#|------------------------------------------------------------------------------|
F#|------------------------------------------------------------------------------|
C#|-7--8--2----------------------------------------------------------------------|
G#|-5--6--2-------------------3-6-5-------------------3-6-5----------------------|
D#|-------0--0-0-0-0-0-0-0-0--1-4-3--0-0-0-0-0-0-0-0--1-4-3--0-0-0-0-0-0-0-0-----|
       solo rhythm                                                            

D#|------------------------------------------------------------------------------|
A#|------------------------------------------------------------------------------|
F#|------------------------------------------------------------------------------|
C#|------------------2-----------------------------------------------------------|
G#|-----2---2-3------2-------------------3-6-5-------------------3-6-5-----------|
D#|-1-4---4-----4-3--0--0-0-0-0-0-0-0-0--1-4-3--0-0-0-0-0-0-0-0--1-4-3--0-0-0-0--|
                                                                              

D#|------------------------------------------------------------------------------|
A#|------------------------------------------------------------------------------|
F#|------------------------------------------------------------------------------|
C#|--------------------------------2---------------------------------------------|
G#|--------------2---2-3-------3---2-------------------3-6-5------------------3--|
D#|-0-0-0-0--1-4---4-----4-3---1---0--0-0-0-0-0-0-0-0--1-4-3--0-0-0-0-0-0-0-0-1--|
                                                                              

D#|------------------------------------------------------------------------------|
A#|------------------------------------------------------------------------------|
F#|------------------------------------------------------------------------------|
C#|----------------------------------------2-------------------------------------|
G#|-6-5-----------------------2---2-3------2-------------------3-6-5-------------|
D#|-4-3--0-0-0-0-0-0-0-0--1-4---4-----4-3--0--0-0-0-0-0-0-0-0--1-4-3--0-0-0-0-0--|
                                                                              

D#|------------------------------------------------------------------------------|
A#|------------------------------------------------------------------------------|
F#|------------------------------------------------------------------------------|
C#|------------------------------------------------------------------------------|
G#|--------3-6-5-----------------------2---2-3-------3---------------------------|
D#|-0-0-0--1-4-3--0-0-0-0-0-0-0-0--1-4---4-----4-3---1---------------------------|
                                                                              

D#|------------------------------------------------------------------------------|
A#|------------------------------------------------------------------------------|
F#|------------------------------------------------------------------------------|
C#|-----------------------2-----------------------3-----------------------2-4-4--|
G#|-4-------------------5-2-4-------------------5-1-4-------------------5-2-2-2--|
D#|-2--2-2-2-2-2-2-2-2--3-0-2--2-2-2-2-2-2-2-2--3---2--2-2-2-2-2-2-2-2--3-0------|
                                                                              

D#|------------------------------------------------------------------------------|
A#|------------------------------------------------------------------------------|
F#|------------------------------------------------------------------------------|
C#|-4---3------------------------------------------------------------------------|
G#|-2-5-1-5----------------------------------------------------------------------|
D#|---3---3----------------------------------------------------------------------|
                             repeat above 2 bars 2x                           

D#|------------------------------------------------------------------------------|
A#|------------------------------------------------------------------------------|
F#|------------------------------------------------------------------------------|
C#|-2----------------------------------------------------------------------------|
G#|-2-----------------------4-----------------------------------------------4----|
D#|-0--0-0-0-0-0-0-0-0--3-6----0-0-0-0-0-0-0-0--3-6-5--0-0-0-0-0-0-0-0--3-6---6--|
                                                                              

D#|------------------------------------------------------------------------------|
A#|------------------------------------------------------------------------------|
F#|------------------------------------------------------------------------------|
C#|------------------------------------------------------------------------------|
G#|-4-5--------------------------------------------------------------------------|
D#|-----6-5----------------------------------------------------------------------|
                         repeat above 2 bars 2x                               

D#|------------------------------------------------------------------------------|
A#|------------------------------------------------------------------------------|
F#|------------------------------------------------------------------------------|
C#|-----------------------------------------2------------------------------------|
G#|-4---4-5------4---4-5------4---4-5-------2------------------------------------|
D#|---6-----6-5----6-----6-5----6-----6-5---0------------------------------------|
                                                                              

D#|------------------------------------------------------------------------------|
A#|------------------------------------------------------------------------------|
F#|---------------1---1-2--------------------------------------------------------|
C#|-2---2-3---------3-----3-2----------------------------------------------------|
G#|---4-----4-3------------------------------------------------------------------|
D#|------------------------------------------------------------------------------|
        guitar 2                                                              

D#|------------------------------------------------------------------------------|
A#|------------------------------------------------------------------------------|
F#|------------------------------------------------------------------------------|
C#|-2--------------------------------2-------------------------------------------|
G#|-2---3---5---6------5---6---5/6---2---3---5---3-------------------------------|
D#|-0-0-1-0-3-0-4--0-0-3-0-4-0-3/4---0-0-1-0-3-0-1--0-0-0-0-0-0-0-0--------------|
                          repeat above bar 8x                                 

D#|------------------------------------------------------------------------------|
A#|------------------------------------------------------------------------------|
F#|------------------------------------------------------------------------------|
C#|-4----------------------------------------------------------------------------|
G#|-2----------------------------------------------------------------------------|
D#|------------------------------------------------------------------------------|
                                                                              

D#|------------------------------------------------------------------------------|
A#|------------------------------------------------------------------------------|
F#|------------------------------------------------------------------------------|
C#|----------------6---6---------------6---6---------------6---6--9-9-9-10-9-10--|
G#|------------------8---7---------------8---7---------------8----7-7-7--8-7--8--|
D#|-0-0-0-0-0-0-0-----------0-0-0-0-0-----------0-0-0-0-0------------------------|
                             repeat above bar 4x                              

D#|------------------------------------------------------------------------------|
A#|------------------------------------------------------------------------------|
F#|------------------------------------------------------------------------------|
C#|---------------------------------------------------------------9-9-9-10-9-10--|
G#|----------------6---6---------------6---6---------------6---6--7-7-7--8-7--8--|
D#|-0-0-0-0-0-0-0----8---7--0-0-0-0-0----8---7--0-0-0-0-0----8-------------------|
          guitar 2                                                            

D#|------------------------------------------------------------------------------|
A#|------------------------------------------------------------------------------|
F#|------------------------------------------------------------------------------|
C#|-------------------------------9----------------------------------------------|
G#|----------------------5b6r5----7-------------------5b6r5----------------------|
D#|-0-0-0-0-0-0-0-0--6/7-------6-----0-0-0-0-0-0--6/7-------6-5--0-0-0-0-0-0-----|
                                                                              

D#|------------------------------------------------------------------------------|
A#|------------------------------------------------------------------------------|
F#|------------------------------------------------------------------------------|
C#|------------------------------------------------------------------------------|
G#|-----5b6r5-----5-5-5-8-5-8----------------------------------------------------|
D#|-6/7-------6---3-3-3-6-3-6----------------------------------------------------|
                            repeat above 2 bars 4x                            

D#|------------------------------------------------------------------------------|
A#|------------------------------------------------------------------------------|
F#|------------------------------------------------------------------------------|
C#|----------------------7b8r7---9-------------------7b8r7-----------------------|
G#|------------------8/9-------8-----------------8/9-------8-7-------------------|
D#|-0-0-0-0-0-0-0-0-----------------0-0-0-0-0-0-----------------0-0-0-0-0-0------|
                                                                              

D#|------------------------------------------------------------------------------|
A#|------------------------------------------------------------------------------|
F#|------------------------------------------------------------------------------|
C#|-----7b8r7--------------------------------------------------------------------|
G#|-8/9-------8---5-5-5-8-5-8----------------------------------------------------|
D#|---------------3-3-3-6-3-6----------------------------------------------------|
                       above 2 bars are guitar 2                              

D#|------------------------------------------------------------------------------|
A#|------------------------------------------------------------------------------|
F#|------------------------------------------------------------------------------|
C#|------------------------------------------2---2---7-8---2---------------------|
G#|-5-5-5-8-5-8--5-5-5-8-5-8--5-5-5-8-5-8----2---2---5-6---2---------------------|
D#|-3-3-3-6-3-6--3-3-3-6-3-6--3-3-3-6-3-6----0---0---------0---------------------|
                                                                              

D#|------------------------------------------------------------------------------|
A#|------------------------------------------------------------------------------|
F#|------------------------------------------------------------------------------|
C#|------------------------------------------------------------------------------|
G#|--------------5-5-5-7-5-7-----------------------------------------------------|
D#|-6-6-6-9-6-9------------------------------------------------------------------|
               guitar 2                                                             

Добавлено: 01.07.2012
Другие материалы по этой песне:

Страница создана 01.07.2012
http://primanota.ru/evile/killer-from-the-deep-chords.htm
Привет, Гость.
Предлагаем пройти революционный курс по гитаре.
Подарок от PrimaNota.Ru, забирай!