PrimaNota.ru - самый крупный в мире бесплатный архив песенных текстов, аккордов, табулатур и нот


Evile - Infected Nation - текст песни, таба, видео

Регистрация Запомнить меня
Войти через:  Facebook Google Twitter Vk Yandex Mail.ru

Evile - Infected Nation - текст песни, таба, видео

Печатать
Просмотров: 114
Infected Nation - Evile
-------------------------------------------------------------------------------
Tabbed by: Daniel Jordan
Email:
Rhythm Guitar: Matt Drake
Lead Guitar: Ol Drake (note: still certain lead bits need adding for lead including solo
I have the time)

My aim is to tab up all of their new songs from their new album Infected Nations, I will
tabbing up the rhythm to Now Demolition next, once all of the songs are tabbed up with
ill move on to figuring out the solo's, although I think it's going to take me a lot 
to work out the solo's!

R.I.P Mike Alexander.

Tuning: Eb Ab Db Gb Bb Eb

Clean Intro

Ol Drake
|-----------------------------------------------------------------------------------|
|--------0-------------0-----------0-------------0-----------0-------------0--------|
|------5---5---------5---5-------5---5---------5---5-------5---5---------5---5------|
|----6-------6-----6-------6---6-------6-----6-------6---6-------6-----6-------6----|
|--7-----------7-8-----------7-----------7-8-----------7-----------7-8-----------7--|
|-----------------------------------------------------------------------------------|

|--------------------------------------------0----------------------------------------------0--|
|-----10---10---9---8----7---------------8-----------10---10---9---8----7---------------8------|
|----------------------------10-9-7-6---------------------------------------10-9-7-6-----------|
|---7----7----8---9---10---------------------------7----7----8---9---10------------------------|
|-0------------------------0----------\7---7-----0------------------------0----------\7---7----|
|----------------------------------------------------------------------------------------------|

|----0----------------------------|
|--6---6-5---5-----3---3---4---4--|
|----------6---6-2---2---2---2----|
|---------------------------------|
|---------------------------------|
|---------------------------------|

|-----------------------------------------------------------------------------------|
|--------0-------------0-----------0-------------0-----------0-------------0--------|
|------5---5---------5---5-------5---5---------5---5-------5---5---------5---5------|
|----6-------6-----6-------6---6-------6-----6-------6---6-------6-----6-------6----|
|--7-----------7-8-----------7-----------7-8-----------7-----------7-8-----------7--|
|-----------------------------------------------------------------------------------|

Riff 1

|------------------------------------------------------------|
|------------------------------------------------------------|
|------------------------------------------------------------|
|------------------------------------------------------------|
|------------------------------------------------------------|
|-0-0-0-0-00000000-0-0-0-0-00000000-0-0-0-0-0000000000000000-|

|------------------------------------------------------------|
|------------------------------------------------------------|
|------------------------------------------------------------|
|------------------------------------------------------------|
|------------------------------------------------------------|
|-0-0-0-0-00000000-0-0-0-0-00000000-0-0-0-0-0000000000000000-|

|------------------------------------------------------------|
|------------------------------------------------------------|
|------------------------------------------------------------|
|------------------------------------------------------------|
|------------------------------------------------------------|
|-0-0-0-0-00000000-0-0-0-0-00000000-0-0-0-0-0000000000000000-|

|------------------------------------------------------------|
|------------------------------------------------------------|
|------------------------------------------------------------|
|------------------------------------------------------------|
|------------------------------------------------------------|
|-0-0-0-0-00000000-0-0-0-0-00000000-0-0-0-0-0000000000000000-|

Riff 2

Matt (Rhythm Guitar)
|-----------------------------------------------------|
|-----------------------------------------------------|
|-----------------------------------------------------|
|-------------------------------------------7----6----|
|-------------------------------------------5----4----|
|-0-0-0-0-00000000-0-0-0-0-00000000-0-0-0-0-----------|

|-----------------------------------------------------|
|-----------------------------------------------------|
|-----------------------------------------------------|
|-----------------------------------------------------|
|-----------------------------------------------------|
|-0-0-0-0-00000000-0-0-0-0-00000000-0-0-0-0-88887777--|

|-----------------------------------------------------|
|-----------------------------------------------------|
|-----------------------------------------------------|
|-----------------------------------------------------|
|-------------------------------------------8----7----|
|-0-0-0-0-00000000-0-0-0-0-00000000-0-0-0-0-6----5----|

Ol (Lead Guitar)
|-----------------------------------------------------|
|-----------------------------------------------------|
|-----------------------------------------------------|
|-----------------------------------------------------|
|-----------------------------------------------------|
|-0-0-0-0-00000000-0-0-0-0-00000000-0-0-0-0-66665555--|

|-----------------------------------------------------|
|-----------------------------------------------------|
|-----------------------------------------------------|
|-----------------------------------------------------|
|-------------------------------------------6----5----|
|-0-0-0-0-00000000-0-0-0-0-00000000-0-0-0-0-4----3----|

|-----------------------------------------------------|
|-----------------------------------------------------|
|-----------------------------------------------------|
|-----------------------------------------------------|
|-----------------------------------------------------|
|-0-0-0-0-00000000-0-0-0-0-00000000-0-0-0-0-22221111--|

Riff 3

|-------------------------------------------------------------------------------|
|-------------------------------------------------------------------------------|
|-------------------------------------------------------------------------------|
|--------------6------6----------4-----4-------------6------6----------4-----4--|
|--2--3------3-4-4444-4-5------5-2-222-2-2--3------3-4-4444-4-5------5-2-222-2--|
|--0--1-1111-1----------3-3333-3---------0--1-1111-1----------3-3333-3----------|

|--------------------------------|
|--------------------------------|
|--------------------------------|
|--------------------------------|
|-2--3-4-2----5-6-7-3----8--2----|
|-0--1-2-0----3-4-5-1----6--0----|

Main Riff

|----------------------------------------------------------------------------|
|----------------------------------------------------------------------------|
|---------------------------------------------------------------------4p3p0--|
|-----------------------------------------------------------6p4p0------------|
|---------------6p4p0----------7\8-8\9--------------6p4p0---------4-0--------|
|--44444444-5-0-------44444444-5\6-6\7-44444444-5-0-------4-0----------------|

|----------------------------------------------------------------------------|
|----------------------------------------------------------------------------|
|---------------------------------------------------------------------4p3p0--|
|-----------------------------------------------------------6p4p0------------|
|---------------6p4p0----------7\8-8\9--------------6p4p0---------4-0--------|
|--44444444-5-0-------44444444-5\6-6\7-44444444-5-0-------4-0----------------|

|--------------------------|
|--4p3p0-1p0---------------|
|-------------6p4p0--------|
|-------------------6p4p0--|
|--------------------------|
|--------------------------|

Verse Riff

|---------------------------------------------------------------------|
|---------------------------------------------------------------------|
|---------------------------------------------------------------------|
|---------------------------------------------------------------------|
|--------------5555444466665555-6-—6/5-------------6/5----------------|
|--444444444444-----------------4—-4/3-3-3-3-3-3-3-4/3-3-3-3-3-3-3-3--|

|---------------------------------------------------------------------|
|---------------------------------------------------------------------|
|---------------------------------------------------------------------|
|---------------------------------------------------------------------|
|--------------5555444477776666-6-—6/5---------5-4-4/3----------------|
|--444444444444-----------------4—-4/3-3-3-3-3-3-2-2/1-1-1-1-1-1-1-1--|

|---------------------------------------------------------------------|
|---------------------------------------------------------------------|
|---------------------------------------------------------------------|
|---------------------------------------------------------------------|
|--------------5555444466665555-6-—6/5-------------6/5----------------|
|--444444444444-----------------4—-4/3-3-3-3-3-3-3-4/3-3-3-3-3-3-3-3--|

|---------------------------------------------------------------------|
|---------------------------------------------------------------------|
|---------------------------------------------------------------------|
|---------------------------------------------------------------------|
|--------------5555444477776666-6-—6/5---------5-4-4/3----------------|
|--444444444444-----------------4—-4/3-3-3-3-3-3-2-2/1-1-1-1-1-1-1-1--|

|--------------------|
|--------------------|
|--1-----------------|
|--1----1----3-------|
|-------1----1----2--|
|-----------------0--|

|----------------------------------------------------------------------------|
|----------------------------------------------------------------------------|
|---------------------------------------------------------------------4p3p0--|
|-----------------------------------------------------------6p4p0------------|
|--6------------6p4p0----------7\8-8\9--------------6p4p0---------4-0--------|
|--4-444444-5-0-------44444444-5\6-6\7-44444444-5-0-------4-0----------------|

|----------------------------------------------------------------------------|
|----------------------------------------------------------------------------|
|---------------------------------------------------------------------4p3p0--|
|-----------------------------------------------------------6p4p0------------|
|---------------6p4p0----------7\8-8\9--------------6p4p0---------4-0--------|
|--44444444-5-0-------44444444-5\6-6\7-44444444-5-0-------4-0----------------|

|--------------------|
|--------------------|
|--1-----------------|
|--1----1----3-------|
|-------1----1----2--|
|-----------------0--|

Chorus

|---------------------------------------------------------------------------|
|---------------------------------------------------------------------------|
|---------------------------------------------------------------------------|
|-------4-----------------------------------4-------------------------------|
|--11-1-1-------4-------2--1-----1-----11-1-1-------4-------2--1-----1------|
|----------11-1-1—-00-0-0----0-0---0-0---------11-1-1—-00-0-0----0-0---0-0--|

|----------------------------------------------------------------------------|
|----------------------------------------------------------------------------|
|----------------------------------------------------------------------------|
|-------4------------------------------------4-------------------------------|
|--11-1-1-------4-------2--1-----1-----1-1-1-1-------4-------2--1-----1------|
|----------11-1-1—-00-0-0----0-0---0-0---------1-1-1-1—-00-0-0----0-0---0-0--|

|-------------------------|
|-------------------------|
|-------------------------|
|-------------------------|
|--7-----7-----7-----8----|
|--5-0-0-5-0-0-5-0-0-6----|


Riff 2

Matt (Rhythm Guitar)
|-----------------------------------------------------|
|-----------------------------------------------------|
|-----------------------------------------------------|
|-------------------------------------------7----6----|
|-------------------------------------------5----4----|
|-0-0-0-0-00000000-0-0-0-0-00000000-0-0-0-0-----------|

|-----------------------------------------------------|
|-----------------------------------------------------|
|-----------------------------------------------------|
|-----------------------------------------------------|
|-----------------------------------------------------|
|-0-0-0-0-00000000-0-0-0-0-00000000-0-0-0-0-88887777--|

|-----------------------------------------------------|
|-----------------------------------------------------|
|-----------------------------------------------------|
|-----------------------------------------------------|
|-------------------------------------------8----7----|
|-0-0-0-0-00000000-0-0-0-0-00000000-0-0-0-0-6----5----|

Ol (Lead Guitar)
|-----------------------------------------------------|
|-----------------------------------------------------|
|-----------------------------------------------------|
|-----------------------------------------------------|
|-----------------------------------------------------|
|-0-0-0-0-00000000-0-0-0-0-00000000-0-0-0-0-66665555--|

|-----------------------------------------------------|
|-----------------------------------------------------|
|-----------------------------------------------------|
|-----------------------------------------------------|
|-------------------------------------------6----5----|
|-0-0-0-0-00000000-0-0-0-0-00000000-0-0-0-0-4----3----|

|-----------------------------------------------------|
|-----------------------------------------------------|
|-----------------------------------------------------|
|-----------------------------------------------------|
|-----------------------------------------------------|
|-0-0-0-0-00000000-0-0-0-0-00000000-0-0-0-0-22221111--|

Riff 3

|-------------------------------------------------------------------------------|
|-------------------------------------------------------------------------------|
|-------------------------------------------------------------------------------|
|--------------6------6----------4-----4-------------6------6----------4-----4--|
|--2--3------3-4-4444-4-5------5-2-222-2-2--3------3-4-4444-4-5------5-2-222-2--|
|--0--1-1111-1----------3-3333-3---------0--1-1111-1----------3-3333-3----------|

|------------------------------------------------------------------------|
|------------------------------------------------------------------------|
|------------------------------------------------------------------------|
|--------------6------6----------4-----4---------------------------------|
|--2--3------3-4-4444-4-5------5-2-222-2--2--3-4-2----5-6-7-3----8--2----|
|--0--1-1111-1----------3-3333-3----------0--1-2-0----3-4-5-1----6--0----|

Verse Riff

|---------------------------------------------------------------------|
|---------------------------------------------------------------------|
|---------------------------------------------------------------------|
|---------------------------------------------------------------------|
|--------------5555444466665555-6-—6/5-------------6/5----------------|
|--444444444444-----------------4—-4/3-3-3-3-3-3-3-4/3-3-3-3-3-3-3-3--|

|---------------------------------------------------------------------|
|---------------------------------------------------------------------|
|---------------------------------------------------------------------|
|---------------------------------------------------------------------|
|--------------5555444477776666-6-—6/5---------5-4-4/3----------------|
|--444444444444-----------------4—-4/3-3-3-3-3-3-2-2/1-1-1-1-1-1-1-1--|

|---------------------------------------------------------------------|
|---------------------------------------------------------------------|
|---------------------------------------------------------------------|
|---------------------------------------------------------------------|
|--------------5555444466665555-6-—6/5-------------6/5----------------|
|--444444444444-----------------4—-4/3-3-3-3-3-3-3-4/3-3-3-3-3-3-3-3--|

|---------------------------------------------------------------------|-----|
|---------------------------------------------------------------------|-----|
|---------------------------------------------------------------------|-----|
|---------------------------------------------------------------------|-----|
|--------------5555444477776666-6-—6/5---------5-4-4/3----------------|--2--|
|--444444444444-----------------4—-4/3-3-3-3-3-3-2-2/1-1-1-1-1-1-1-1--|--0--|

Solo Section (Rhythm) Solo to be added when I have enough time on my hands it's a tough one.

|------------------------------------------------------------------------------|
|------------------------------------------------------------------------------|
|------------------------------------------------------------------------------|
|------------------------------------------------------------------------------|
|---------------5p3p0----------5\6-6\7--------------5p3p0-----3p2p0-----5p3p0--|
|--22222222-3-0-------22222222-3\4-4\5-22222222-3-0-------3-0-------3-0--------|

|------------------------------------------------------------------------------|
|------------------------------------------------------------------------------|
|------------------------------------------------------------------------------|
|------------------------------------------------------------------------------|
|---------------5p3p0----------5\6-6\7--------------5p3p0-----3p2p0-----5p3p0--|
|--22222222-3-0-------22222222-3\4-4\5-22222222-3-0-------3-0-------3-0--------|

|-----------------------------------|
|-----------------------------------|
|-----------------------------------|
|-----------------------------------|
|--------------------------------5--|
|--33333333-3-3-3-3-33333333-3-3-3--|

|------------------------------------------------------------------------------|
|------------------------------------------------------------------------------|
|------------------------------------------------------------------------------|
|------------------------------------------------------------------------------|
|---------------5p3p0----------5\6-6\7--------------5p3p0-----3p2p0-----5p3p0--|
|--22222222-3-0-------22222222-3\4-4\5-22222222-3-0-------3-0-------3-0--------|

|------------------------------------------------------------------------------|
|------------------------------------------------------------------------------|
|------------------------------------------------------------------------------|
|------------------------------------------------------------------------------|
|---------------5p3p0----------5\6-6\7--------------5p3p0-----3p2p0-----5p3p0--|
|--22222222-3-0-------22222222-3\4-4\5-22222222-3-0-------3-0-------3-0--------|

|-----------------------------------|
|-----------------------------------|
|-----------------------------------|
|-----------------------------------|
|--------------------------------5--|
|--33333333-3-3-3-3-33333333-3-3-3--|

|------------------------------------------------------------------------------|
|------------------------------------------------------------------------------|
|------------------------------------------------------------------------------|
|------------------------------------------------------------------------------|
|---------------5p3p0----------5\6-6\7--------------5p3p0-----3p2p0-----5p3p0--|
|--22222222-3-0-------22222222-3\4-4\5-22222222-3-0-------3-0-------3-0--------|

|------------------------------------------------------------------------------|
|------------------------------------------------------------------------------|
|------------------------------------------------------------------------------|
|------------------------------------------------------------------------------|
|---------------5p3p0----------5\6-6\7--------------5p3p0-----3p2p0-----5p3p0--|
|--22222222-3-0-------22222222-3\4-4\5-22222222-3-0-------3-0-------3-0--------|


|----------------------------------------------------------------------|
|----------------------------------------------------------------------|
|----------------------------------------------------------------------|
|----------------------------------------------------------------------|
|--------------------------------5----------------------------------7--|
|--33333333-3-3-3-3-33333333-3-3-3----55555555-5-5-5-5-55555555-5-5-5--|

|---------------------------------------|
|---------------------------------------|
|---------------------------------------|
|-------4-------------------------------|
|--11-1-1-------4-------2--1-----1------|
|----------11-1-1--00-0-0----0-0---0-0--|

Chorus

|---------------------------------------------------------------------------|
|---------------------------------------------------------------------------|
|---------------------------------------------------------------------------|
|-------4-----------------------------------4-------------------------------|
|--11-1-1-------4-------2--1-----1-----11-1-1-------4-------2--1-----1------|
|----------11-1-1—-00-0-0----0-0---0-0---------11-1-1—-00-0-0----0-0---0-0--|

|-------------------------------------------------------------------------|
|-------------------------------------------------------------------------|
|-------------------------------------------------------------------------|
|-------4------------------------------------4----------------------------|
|--11-1-1-------4-------2--1-----1-----1-1-1-1-------4--2-3-2-1-2-1-3--2--|
|----------11-1-1—-00-0-0----0-0---0-0---------1-1-1-1—-2-3-2-1-2-1-1--0--|

Lead Melody (This part harmonizes second time round, couldn't be bothered to figure it out)
(play twice)
|-------------------------------------------------|
|-------------------------------------------------|
|-------------------------------------------------|
|----8-9~~---8-9\11-9-8-----11-10-9\10~~\15-15~~--|
|--8-------8------------8-9-----------------------|
|-------------------------------------------------|

|-------------------------------------------------|
|-------------------------------------------------|
|-------------------------------------------------|
|--------14~~----14-15\17-15-14-13~------13-------|
|--14-15------14-------------------13-------13----|
|-------------------------------------14-------14-|

|---------------------------------|
|---------------------------------|
|---------------------------------|
|--12------11------10------9------|
|-----12------11------10-----9----|
|-------13------12------12----11--|

Rhythm under lead melody (play twice)
|-------------------------------------------------------------------|
|-------------------------------------------------------------------|
|-------------------------------------------------------------------|
|-------4-------2-------3-------3-----------------------------------|
|--11-1-1--11-1-1--11-1-1--11-1-1-------4-------2-------3--------3--|
|----------------------------------11-1-1--11-1-1--11-1-1---11-1-1--|


|-------------------------------------------------------------------|
|-------------------------------------------------------------------|
|-------------------------------------------------------------------|
|-----------------------9-------9-------9-------7-------6--------4--|
|-------2-------2-------7-------7--66-6-6--66-6-6--55-5-4---33-3-2--|
|--00-0-0--00-0-0--00-0----00-0-------------------------------------|

Final Verse

|-------------------------------------------------------------------|
|-------------------------------------------------------------------|
|-------------------------------------------------------------------|
|-------4-------2-------3-------3-----------------------------------|
|--11-1-1--11-1-1--11-1-1--11-1-1-------4-------2-------3--------3--|
|----------------------------------11-1-1--11-1-1--11-1-1---11-1-1--|


|----------------------------------------------------------------------|
|----------------------------------------------------------------------|
|----------------------------------------------------------------------|
|-----------------------9-------9--------9--------7--------6--------4--|
|-------2-------2-------7-------7--6-6-6-6—-6-6-6-6--5-5-5-4--3-3-3-2--|
|--00-0-0--00-0-0--00-0----00-0----------------------------------------|

Riff 4 (Matt's part in left column Ol's in right column)

|---------------|---------------|
|---------------|---------------|
|---------------|--3~~----------|
|--3----4-------|------3~~-2~~--|
|--1----1----2--|---------------|
|------------0--|---------------|

|---------------|---------------|
|---------------|---------------|
|---------------|--15~~---------|
|--3----4-------|------15~~14~~-|
|--1----1----2--|---------------|
|------------0--|---------------|

|---------------|--18~~---------|
|---------------|---------------|
|---------------|---------------|
|--3----4-------|------15~~14~~-|
|--1----1----2--|---------------|
|------------0--|---------------|

|---------------|---------------|
|---------------|--23~~---------|
|---------------|------22~~21~~-|
|--3----4-------|---------------|
|--1----1----2--|---------------|
|------------0--|---------------|

Matt
|--------------------------|
|--------------------------|
|--------------------------|
|--5---------------4----5--|
|--3----5----4-----2----3--|
|-------3----2-------------|

Ol
|--------------------------|
|--------------------------|
|--------------------------|
|--5---------------4----8--|
|--3----5----4-----2----6--|
|-------3----2-------------|

Riff 1

|------------------------------------------------------------|
|------------------------------------------------------------|
|------------------------------------------------------------|
|------------------------------------------------------------|
|------------------------------------------------------------|
|-0-0-0-0-00000000-0-0-0-0-00000000-0-0-0-0-0000000000000000-|

|------------------------------------------------------------|
|------------------------------------------------------------|
|------------------------------------------------------------|
|------------------------------------------------------------|
|------------------------------------------------------------|
|-0-0-0-0-00000000-0-0-0-0-00000000-0-0-0-0-0000000000000000-|

|------------------------------------------------------------|
|------------------------------------------------------------|
|------------------------------------------------------------|
|------------------------------------------------------------|
|------------------------------------------------------------|
|-0-0-0-0-00000000-0-0-0-0-00000000-0-0-0-0-0000000000000000-|

|------------------------------------------------------------|
|------------------------------------------------------------|
|------------------------------------------------------------|
|------------------------------------------------------------|
|------------------------------------------------------------|
|-0-0-0-0-00000000-0-0-0-0-00000000-0-0-0-0-0000000000000000-|

Riff 2

Matt (Rhythm Guitar)
|-----------------------------------------------------|
|-----------------------------------------------------|
|-----------------------------------------------------|
|-------------------------------------------7----6----|
|-------------------------------------------5----4----|
|-0-0-0-0-00000000-0-0-0-0-00000000-0-0-0-0-----------|

|-----------------------------------------------------|
|-----------------------------------------------------|
|-----------------------------------------------------|
|-----------------------------------------------------|
|-----------------------------------------------------|
|-0-0-0-0-00000000-0-0-0-0-00000000-0-0-0-0-88887777--|

|-----------------------------------------------------|
|-----------------------------------------------------|
|-----------------------------------------------------|
|-----------------------------------------------------|
|-------------------------------------------8----7----|
|-0-0-0-0-00000000-0-0-0-0-00000000-0-0-0-0-6----5----|

Ol (Lead Guitar)
|-----------------------------------------------------|
|-----------------------------------------------------|
|-----------------------------------------------------|
|-----------------------------------------------------|
|-----------------------------------------------------|
|-0-0-0-0-00000000-0-0-0-0-00000000-0-0-0-0-66665555--|

|-----------------------------------------------------|
|-----------------------------------------------------|
|-----------------------------------------------------|
|-----------------------------------------------------|
|-------------------------------------------6----5----|
|-0-0-0-0-00000000-0-0-0-0-00000000-0-0-0-0-4----3----|

|-----------------------------------------------------|
|-----------------------------------------------------|
|-----------------------------------------------------|
|-----------------------------------------------------|
|-----------------------------------------------------|
|-0-0-0-0-00000000-0-0-0-0-00000000-0-0-0-0-22221111--|

Outro

Matt
|--------------------|
|--------------------|
|--------------------|
|-----------------3--|
|--2----3---------1--|
|--0----1------------|

Ol
|--------------------|
|--------------------|
|--------------------|
|------------6-------|
|--2----3----4-------|
|--0----1------------|

Both Guitars
|--------------------|
|--------------------|
|--------------------|
|--------------------|
|--2-3-2-1-2-1-3--2--|
|--2-3-2-1-2-1-1--0--|

On some sections I haven't named specific guitar players to their riffs, i.e. intro
Matt plays that riff twice through then Ol comes in for last two (this is riff 1 I'm talking
If you listen to the track, watch their video of the song and watch them playing it live 
should be a help if any bits get complicated but I think its pretty straightforward,
hope this tab has helped and it was definitely worth my time tabbing it up, a truly 
song from an amazing band, I'll try and tab up the solo in the near future! Thanks.
Добавлено: 17.03.2012
Другие материалы по этой песне:

Страница создана 17.03.2012
http://primanota.ru/evile/infected-nation-chords.htm
Привет, Гость.
Предлагаем пройти революционный курс по гитаре.
Подарок от PrimaNota.Ru, забирай!