PrimaNota.ru - самый крупный в мире бесплатный архив песенных текстов, аккордов, табулатур и нот


Evile - Cult - таба, видео

Регистрация Запомнить меня
Войти через:  Facebook Google Twitter Vk Yandex Mail.ru

Evile - Cult - таба, видео

Печатать
Просмотров: 310
-----------------------------------------------------------------------------
                                CULT - Evile
-----------------------------------------------------------------------------
Tabbed by: PappaDiamond
Email: lucascarvalho1995@hotmail.com

Tuning: Half-Step Down (D#, G#, C#, F#, A#, D#)

                         Intro
e|-------------------------|-----------------------|
B|-------------------------|-----------------------|
G|-------------------------|-----------------------| (4x)
D|--/8---4\3\2----8-8/9\8--|--/8--4\3\2-/5--2------|
A|--/8---4\3\2----6-6/7\6--|--/8--4\3\2-/5--2------|
E|--/6---2\1\0----6-6/7\6--|--/6--2\1\0-/3--0------|


                           Verse
e|---------------------------|-----------------------------|
B|---------------------------|-----------------------------|
G|---------------------------|-----------------------------| (4x)
D|--/8---4\3\2---------------|--/8--4\3\2-/5--2------------|
A|--/8---4\3\2------2-------2|--/8--4\3\2-/5--2------2-----|
E|--/6---2\1\0--0-0-0-0-0-0-0|--/6--2\1\0-/3--0--0-0-0-0---|
           PM------------|            PM-------------------|

                        Chorus
e|------------------------|--------------------------------|
B|------------------------|--------------------------------|
G|--5-----------5--5/6\5--|--5\----------------------------|
D|--5----4------5--5/6\5--|--5\--6\5\3-/6------------------|
A|--3----4------3--3/4\3--|--3\--6\5\3-/6------3-------3---|
E|-------2----------------|------4\3\1-/4--1-1-1-1-1-1-1---|
                       PM----------------------------------|

e|--------------------------|----------------------|
B|--------------------------|----------------------|
G|--5\-------------5-5/6\3--|--5\------------------|
D|--5\--6\5\3------5-5/6\3--|--5\--6\5\3-/6--2-----|
A|--3\--6\5\3------3-3/4\3--|--3\--6\5\3-/6--2-----|
E|------4\3\1--1-1----------|------4\3\1-/4--0-----|
              PM--|

                      Intro Riff
e|-------------------------|-----------------------|
B|-------------------------|-----------------------|
G|-------------------------|-----------------------| (2x)
D|--/8---4\3\2----8-8/9\8--|--/8--4\3\2-/5--2------|
A|--/8---4\3\2----6-6/7\6--|--/8--4\3\2-/5--2------|
E|--/6---2\1\0----6-6/7\6--|--/6--2\1\0-/3--0------|

                           Verse
e|---------------------------|-----------------------------|
B|---------------------------|-----------------------------|
G|---------------------------|-----------------------------| (4x)
D|--/8---5\3\2---------------|--/8--5\3\2-/5--2------------|
A|--/8---5\3\2------2-------2|--/8--5\3\2-/5--2------2-----|
E|--/6---3\1\0--0-0-0-0-0-0-0|--/6--3\1\0-/3--0--0-0-0-0---|
           PM------------|            PM-------------------|

                        Chorus
e|------------------------|--------------------------------|
B|------------------------|--------------------------------|
G|--5-----------5--5/6\5--|--5\----------------------------|
D|--5----4------5--5/6\5--|--5\--6\5\3-/6------------------|
A|--3----4------3--3/4\3--|--3\--6\5\3-/6------3-------3---|
E|-------2----------------|------4\3\1-/4--1-1-1-1-1-1-1---|
                       PM----------------------------------|

e|--------------------------|----------------------|
B|--------------------------|----------------------|
G|--5\-------------5-5/6\3--|--5\------------------|
D|--5\--6\5\3------5-5/6\3--|--5\--6\5\3-/6--2-----|
A|--3\--6\5\3------3-3/4\3--|--3\--6\5\3-/6--2-----|
E|------4\3\1--1-1----------|------4\3\1-/4--0-----|
              PM--|

         Bridge Riff
e|---------------------------|
B|---------------------------|
G|---------------------------|
D|-3----------3--------------|
A|-1----------1--------------|
E|----0-0-0-0----0-0-0-0-----|
     PM------|  PM-----------|

                        Solo Base Guitar
e|---------------------------|-----------------------------|
B|---------------------------|-----------------------------|
G|---------------------------|-----------------------------| (4x)
D|--/8---4\3\2---------------|--/8--4\3\2-/5--2------------|
A|--/8---4\3\2------2-------2|--/8--4\3\2-/5--2------2-----|
E|--/6---2\1\0--0-0-0-0-0-0-0|--/6--2\1\0-/3--0--0-0-0-0---|
           PM------------|            PM-------------------|

                  Outro
e|---------------------------------------|
B|---------------------------------------|
G|--9----9-11--12---14----16----17\16----|
D|---------------------------------------|
A|--7----7--9--10---12----14----15\14----|
E|---------------------------------------|

e|-----------------------17-14~---19br17p15--14~-12~-|
B|-----------------15h17-----------------------------|
G|--------14-11~~------------------------------------|
D|--12h14--------------------------------------------|
A|---------------------------------------------------|
E|---------------------------------------------------|


E        F
We can deliver you
E               F
Four winds come into view
E               F
Breathe deep of our beliefs
E                     F
The cult knows you'll never leave

                      Intro Riff
e|-------------------------|-----------------------|
B|-------------------------|-----------------------|
G|-------------------------|-----------------------| (2x)
D|--/8---4\3\2----8-8/9\8--|--/8--4\3\2-/5--2------|
A|--/8---4\3\2----6-6/7\6--|--/8--4\3\2-/5--2------|
E|--/6---2\1\0----6-6/7\6--|--/6--2\1\0-/3--0------|

At the breakdown, play C power chord in the low E and slide it down fastly; repeat the 
chorus without the first C and F#.

Thanks to Dethenrager for the correction in the chorus.

Just finishing the end and transcribing it... if you already transcribed the solo and 
the ending section, comment and I update it here
with your credits.
Добавлено: 05.03.2012
Другие материалы по этой песне:
  • Аккорды и текст

Страница создана 05.03.2012
http://primanota.ru/evile/cult-chords.htm
Привет, Гость.
Предлагаем пройти революционный курс по гитаре.
Подарок от PrimaNota.Ru, забирай!